Samhain - Possession Chords & Tabs

 

Possession Chords & Tabs

Samhain Chords & Tabs

Version: 1 Type: Tab 0 ratings
1 star 2 stars 3 stars 4 stars 5 stars
comments

Possession Tab

   
Band: Samhain
Song: Possession

Tabber: John Cukras
AIM: embryocrusher

Tuning: normal

Riff 1:
E---------------------------------------------
B---------------------------------------------
G---------------------------------------------
D---------------------------------------------
A----7---7-----6---6---------------------6---6
E-5~-5-0-5--4~-4-0-4 x's 3 --5~-7~-5~-4~-4-0-4 x's 3
pm     .         .                         .

Riff 2:
E----------------
B----------------
G----------------
D-77777-22222----
A-55555-22222-4-4
E-------00000-2-2

Riff 1 x's 2
[ Tab from: http://www.guitartabs.cc/tabs/s/samhain/possession_tab.html ]
Riff 3:
E----------------------------
B----------------------------
G----------------------------
D----------------------------
A----6----6-6----------------
E-44-4-44-4-4 x's 2-555555555  x's 4
pm..   ..

Riff 4:    A                    B                   1st time       2nd time        3rd time
E-----------------|-------------------------------|--------------|---------------|---
B-----------------|-------------------------------|--------------|---------------|---
G-----------------|-------------------------------|--------------|---------------|---
D-77777-22222-----|-------------------------------|-777777-7--77-|-7777777777-77-|--7
A-55555-22222--44-|-44444-3-2-44444-3-2-44444-3-2-|-555555-5--55-|-5555555555-55-|--5
E-------00000--22-|-22222-----22222-----22222-----|--------------|---------------|---

Riff 1 x's 2

Riff 3 x's 4

Riff 4: A , B , 2nd time

Riff 4: B , 3rd time
Comments