Sambora Richie - Ballad Of Youth Chords & Tabs

 

Ballad Of Youth Chords & Tabs

Sambora Richie Chords & Tabs

Version: 1 Type: Tab 0 ratings
1 star 2 stars 3 stars 4 stars 5 stars
comments

Ballad Of Youth Tab

#----------------------------------PLEASE NOTE---------------------------------#
#This file is the author's own work and represents their interpretation of the #
#song. You may only use this file for private study, scholarship, or research. #
#------------------------------------------------------------------------------#
From: holladay@engin.umich.edu (matthew m. holladay)
Subject: TAB: Richie Sambora - 'Ballad of Youth'


Someone requested this a while back.  This is what I've figured
out.  See what you think


Richie Sambora - 'Ballad of Youth'                                                             

INTRO:
E-|----------10---------------10---------------10---------------10-------|
B-|-------10----10---------10----10---------10----10---------10----10----|
G-|----10----------10---10----------10---10----------10---10----------10-|
D-|--7----------------7----------------8----------------8----------------|
A-|----------------------------------------------------------------------|
E-|----------------------------------------------------------------------|
                                                                               
E-|---------10---------------10---------------12--------------12--------|
B-|------10----10---------10----10---------10----10--------10----10-----|
G-|---10----------10---10----------10----9----------9----9----------9---|
D-|-9----------------9----------------10--------------10----------------|
A-|---------------------------------------------------------------------|
E-|---------------------------------------------------------------------|
                                                                               
E-|--------12-------------12-------10------10------10-------------------|
B-|-----12----12-------12----12-------10------10------10-----10s12vvv---|
G-|---9----------9---9----------9--------9-------9-------9--------------|
D-|---------------------------------------------------------------------|
A-|----------------7----------------------------------------------------|
E-|-0----------------------------------------------------0--------------|
                                                                               
E-|---------------------------------------------|
B-|---------------------------------------------|
G-|---------------------------------------------|
D-|---------------------------------------------|
A-|---5vvvv-----5vvvv-------5vvvvv----5vvvvvv---|
E-|-0-------5-------------0---------5-----------|

E-|------------------------------------------------------|
B-|------------------------------------------------------|
G-|---9---11--11b12vvrb11--9-----------------------------|
D-|--------------------------12--10--12b14vvrb12vvvvvsss-|
A-|------------------------------------------------------|
E-|------------------------------------------------------|

E-|------------------------------------------------------|
B-|------------------------------------------------------|
G-|---9---11--11b12vvrb11--9-----------------------------|
D-|--------------------------12--10--12b14vvrb12vvvvvsss-|
A-|------------------------------------------------------|
E-|------------------------------------------------------|

E-|---12--14--14b15vvrb14--12-----------------------------|
B-|---------------------------15--13--15b17vvrb15vvvvvv---|
G-|-------------------------------------------------------|
D-|-------------------------------------------------------|
A-|-------------------------------------------------------|
E-|-------------------------------------------------------|

     And then slide down the neck and start playing the verses.
     I _think_ that you can pretty much just get away with chords
     here.  Anyway, that's all I know how to do at this point.
     If anyone figures out any little lead parts to spruce this
     up, let me know.
[ Tab from: http://www.guitartabs.cc/tabs/s/sambora_richie/ballad_of_youth_tab.html ]
E-|------------------------------------------------------|
B-|------------------------------------------------------|
G-|---9---11--11b12vvrb11--9-----------------------------|
D-|--------------------------12--10--12b14vvrb12vvvvvsss-|
A-|------------------------------------------------------|
E-|------------------------------------------------------|

E-|---12--14--14b15vvrb14--12h14p12-----------------------------|
B-|---------------------------------15--13--15b17vvrb15vvvvvv---|
G-|-------------------------------------------------------------|
D-|-------------------------------------------------------------|
A-|-------------------------------------------------------------|
E-|-------------------------------------------------------------|

-|------------------------------------------------------|
B-|------------------------------------------------------|
G-|---9---11--11b12vvrb11--9-----------------------------|
D-|--------------------------12--10--12b14vvrb12vvvvvsss-|
A-|------------------------------------------------------|
E-|------------------------------------------------------|

E-|---12--14--14b15vvrb14--12h14p12-----------------------------|
B-|---------------------------------15--13--15b17vvrb15vvvvvv---|
G-|-------------------------------------------------------------|
D-|-------------------------------------------------------------|
A-|-------------------------------------------------------------|
E-|-------------------------------------------------------------|

           *** Sorry, I haven't figured out the solo ***
              *** If anyone knows it, I'd really  ***
                   ***  appreciate the help.  ***


E-|------------------------------------------------------|
B-|------------------------------------------------------|
G-|---9---11--11b12vvrb11--9-----------------------------|
D-|--------------------------12--10--12b14vvrb12vvvvvsss-|
A-|------------------------------------------------------|
E-|------------------------------------------------------|

E-|------------------------------------------------------|
B-|------------------------------------------------------|
G-|---9---11--11b12vvrb11--9-----------------------------|
D-|--------------------------12--10--12b14vvrb12vvvvvsss-|
A-|------------------------------------------------------|
E-|------------------------------------------------------|

E-|---12--14--14b15vvrb14--12h14p12-----------------------------|
B-|---------------------------------15--13--15b17vvrb15vvvvvv---|
G-|-------------------------------------------------------------|
D-|-------------------------------------------------------------|
A-|-------------------------------------------------------------|
E-|-------------------------------------------------------------|

E-|------------------------------------------------------|
B-|-------------------------------9----------------------|
G-|---9---11--11b12vvrb11--9------9----------------------|
D-|--------------------------12---9----------------------|
A-|-------------------------------7----------------------|
E-|-------------------------------0----------------------|

E-|---------------------------------------------|
B-|---------------------------------------------| Keep repeating
G-|---------------------------------------------| this through to
D-|---------------------------------------------| the end.
A-|---5vvvv-----5vvvv-------5vvvvv----5vvvvvv---|
E-|-0-------5-------------0---------5-----------|

    Right at the end:
E-|--16b17rb16-12--------------------12--|
B-|---------------12---------------------|
G-|------------------14-13b14rb13--------|
D-|-------------------------------14-----|
A-|--------------------------------------|
E-|--------------------------------------|


That's all I know of this one.  I hope it's more or less
accurate.  Sorry about the lack of the solo.  I may get 
around to it, I don't know.

BTW, I have also started Mr. Bluesman from this album.
I know the basic chords, etc.  Basically enough to go on
_except_ I don't know the solo.  E-mail me if you'd like
to see what I've got so far.

Correction, etc. (especially the addition of the solo) are
strongly encouraged.

Enjoy

Matthew M Holladay
holladay@engin.umich.edu
------------------------


Comments