Sam Roberts - Dont Walk Away Eileen Chords & Tabs

 

Dont Walk Away Eileen Chords & Tabs

Sam Roberts Chords & Tabs

Version: 1 Type: Tab 0 ratings
1 star 2 stars 3 stars 4 stars 5 stars
comments

Dont Walk Away Eileen Tab

-------------------------------------------------------------------------------
			     Don't Walk Away Eileen - Sam Roberts
-------------------------------------------------------------------------------

Tabbed by:Philip Patching
Email:crocodliehunt01@hotmail.com

This is a very catchy tune. You can figure out the strumming

Tuning: standard
[ Tab from: http://www.guitartabs.cc/tabs/s/sam_roberts/dont_walk_away_eileen_tab.html ]
Intro and verse
e|------------------------------------------------------
B|------------------------------------------------------
G|----------12------------------------------------------
D|-7-7-7----12--12----7-7-7-7-7-7-7-7-7-7-7-------------
A|-7-7-7----10--12----7-7-7-7-7-7-7-7-7-7-7-------------
E|-5-5-5--------10----5-5-0-0-5-0-0-5-0-0-5-------------
    PM    

Chorus
e|------------------------------------------------------
B|------------------------------------------------------
G|-12-/-7-7-7-/-12-/-7-7-7-/-12-------------------------
D|-12-/-7-7-7-/-12-/-7-7-7-/-12-12--7-------------------
A|-10-/-5-5-5-/-10-/-5-5-5-/-10-12--7-------------------
E|------------------------------10--5-------------------

Break down
e|------------------------------------------------------
B|------------------------------------------------------
G|--------7--7-------7---7------------------------------
D|------7---7------7----7-------------------------------
A|-5-5--------------------------------------------------
E|-------------5-5--------------------------------------
Comments