Sam Roberts - Brother Down Chords & Tabs

 

Brother Down Chords & Tabs

Sam Roberts Chords & Tabs

Version: 1 Type: Tab 0 ratings
1 star 2 stars 3 stars 4 stars 5 stars
comments

Brother Down Tab

Band: Sam Roberts
Song: Brother Down
tabbed by: Psymon help from Andrew Laronde
distortioned@hotmail.com
I listened to this song at first and it seemed like it would
be a fun song to play but the tab I found wasn't entirely correct
therefore, with a few adjustments, here you have it, 
it sounds perfect to me and it becomes really easy!!!

standard tuning
Intro and verse
----1---1--1--1-3p1--1-----0---1--1--1-3p1--1---
----3-----3--3------3------1-----3--3------3----
----2----------------------0--------------------
-0----0-----------------------0-----------------
------------------------3-----------------------
------------------------------------------------

----3---1--1--1-3p1--1-----3---1--1--1-3p1--1---
----3-----3--3------3------3-----3--3------3----
------------------------------------------------
------0-----------0-----------0-----------------
-2----------------------2-----------------------
-3----------------------3-----------------------


Chorus
----1~~~----------------------------------------
----3~~~----------------------------------------
----2~~~----------------------------------------
----0~~~----------------------------------------
------------------------------------------------
------------------------------------------------
[ Tab from: http://www.guitartabs.cc/tabs/s/sam_roberts/brother_down_tab.html ]
----3---1--1--1-3p1--1-----3---1--1--1-3p1--1---
----3-----3--3------3------3-----3--3------3----
------------------------------------------------
------0-----------0-----------0-----------------
-2----------------------2-----------------------
-3----------------------3-----------------------

-1---0-------1---0------------------------------
---------3~---------3~--------------------------
------------------------4---5---7~--4---5---7~--
------------------------------------------------
------------------------------------------------
------------------------------------------------

-1---0-------1---0------5---3---1~--5---3---1~--
---------3~---------3~--------------------------
------------------------------------------------
------------------------------------------------
------------------------------------------------
------------------------------------------------
===========Sam Roberts
Brother Down
By:Andrew Laronde
lardo12@hotmail.com
standard tuning
Intro
------1-----3p1---1--0-----3p1--1----3----3p1--1--3----3p1--1
------3---3----3-----1---3----3------3--3----3----3--3----3--
------2----2----2----0----2----2---------2----2-------2----2-
-0------0--------------0---------------0-----------0---------
-------------------3---------------2-------------2-----------
-----------------------------------3-------------3-----------
Comments