Sam Hawksley - Some Kind Of Miracle Chords & Tabs

 

Some Kind Of Miracle Chords & Tabs

Sam Hawksley Chords & Tabs

Version: 1 Type: Tab 0 ratings
1 star 2 stars 3 stars 4 stars 5 stars
comments

Some Kind Of Miracle Tab

   
Some Kind of Miracle
From album 'On Any Other Day' by Sam Hawksley

This song, and the artist, became better known when it was used on the Aussie
soap 'Neighbours' for the majority of the scenes involving the characters Susan and Tom.


Intro

Am
0---0-x-x-x-x--0-x-x-x-x-0--0---x-x-x-x-0--0-x-x-x-x-0--0---x-x-x-x-x-|
1---1-x-x-x-x--1-x-x-x-x-1--1---x-x-x-x-1--1-x-x-x-x-1--1---x-x-x-x-x-|
2---2-x-x-x-x--2-x-x-x-x-2--2---x-x-x-x-2--2-x-x-x-x-2--2---x-x-x-x-x-|
0h2-2-x-x-x-x--2-x-x-x-x-2--0h2-x-x-x-x-2--2-x-x-x-x-2--0h2-x-x-x-x-x-|
0---0-x-x-x-x--0-x-x-x-x-0--0---x-x-x-x-0--0-x-x-x-x-0--0---x-x-x-x-x-|
x---x-x-x-x-x--x-x-x-x-x-x--x---x-x-x-x-x--x-x-x-x-x-x--x---x-x-x-x-x-|
D   D D U U D  D D D U U D  D   D D U U D  D D D U U D  D   D D U U D


Verse

 Am                   Am/Em                      C
-0---0-0-0-0-0-0-00---0---0-0-0-0-0-0-00----0---0-0-0-0-0-0-00-------|
-1---1-1-1-1-1-1-11---1---1-1-1-1-1-1-11----1---1-1-1-1-1-1-11-------|
-2---2-2-2-2-2-2-22---2---2-2-2-2-2-2-22----0---0-0-0-0-0-0-00-------|
-0h2-2-2-2-2-2-2-22---0---0-0-0-0-0-0-00----0h2-2-2-2-2-2-2-22-------|
-0---0-0-0-0-0-0-00---0h2-2-2-2-2-2-2-22----3---3-3-3-3-3-3-33-------|
-x---x-x-x-x-x-x-xx---x---x-x-x-x-x-x-xx----x---x-x-x-x-x-x-xx-------|
 D   D D U U D D DU   D   D D U U D D DU    D   D D U U D D DU

She's the only one... Who makes you wanna run... Who makes you wanna run

She's the last thing in your head... When your turning in your bed...  Alone...

Am
-0---0-0-0-0-0-0-00--------------------------------------------------|
-1---1-1-1-1-1-1-11--------------------------------------------------|
-2---2-2-2-2-2-2-22--------------------------------------------------|
-0h2-2-2-2-2-2-2-22--------------------------------------------------|
-0---0-0-0-0-0-0-00--------------------------------------------------|
-x---x-x-x-x-x-x-xx--------------------------------------------------|
 D   D D U U D D DU

To her...

Without her...


Bridge + Chorus

 C                     F                    Am

-0---0-0-0-0-0-0-00----0---0-0-0-0-0-0-00---0---0-0-0-0-0-0-00-------|
-1---1-1-1-1-1-1-11----1---1-1-1-1-1-1-11---1---1-1-1-1-1-1-11-------|
-0---0-0-0-0-0-0-00----0h2-2-2-2-2-2-2-22---2---2-2-2-2-2-2-22-------|
-0h2-2-2-2-2-2-2-22----3---3-3-3-3-3-3-33---0h2-2-2-2-2-2-2-22-------|
-3---3-3-3-3-3-3-33----0---0-0-0-0-0-0-00---0---0-0-0-0-0-0-00-------|
-x---x-x-x-x-x-x-xx----x---x-x-x-x-x-x-xx---x---x-x-x-x-x-x-xx-------|
 D   D D U U D D DU    D   D D U U D D

It's a thing I can't explain... Like a moth to a flame...the way I'm drawn...

[ Tab from: http://www.guitartabs.cc/tabs/s/sam_hawksley/some_kind_of_miracle_tab.html ]
Am
-0---0-0-0-0-0-0-00--------------------------------------------------|
-1---1-1-1-1-1-1-11--------------------------------------------------|
-2---2-2-2-2-2-2-22--------------------------------------------------|
-0h2-2-2-2-2-2-2-22--------------------------------------------------|
-0---0-0-0-0-0-0-00--------------------------------------------------|
-x---x-x-x-x-x-x-xx--------------------------------------------------|
 D   D D U U D D DU

to her

 C                     F                    Am

-0---0-0-0-0-0-0-00----0---0-0-0-0-0-0-00---0---0-0-0-0-0-0-00-------|
-1---1-1-1-1-1-1-11----1---1-1-1-1-1-1-11---1---1-1-1-1-1-1-11-------|
-0---0-0-0-0-0-0-00----0h2-2-2-2-2-2-2-22---2---2-2-2-2-2-2-22-------|
-0h2-2-2-2-2-2-2-22----3---3-3-3-3-3-3-33---0h2-2-2-2-2-2-2-22-------|
-3---3-3-3-3-3-3-33----0---0-0-0-0-0-0-00---0---0-0-0-0-0-0-00-------|
-x---x-x-x-x-x-x-xx----x---x-x-x-x-x-x-xx---x---x-x-x-x-x-x-xx-------|
 D   D D U U D D DU    D   D D U U D D DU   D   D D U U D D DU

She's some kind of miracle...                     like the 7 wonders...
She's some kind of miracle...                     it's no wonder...


 F

-0---0-0-0-0-0-0-00--------------------------0---0-------------------|
-1---1-1-1-1-1-1-11--------------------------1-----1-----------------|
-0h2-2-2-2-2-2-2-22--------------------------0h2-----2---------------|
-3---3-3-3-3-3-3-33--------------------------3---------3-------------|
-0---0-0-0-0-0-0-00--------------------------0-----------------------|
-x---x-x-x-x-x-x-xx--------------------------x-----------------------|
 D   D D U U D D DU   D

Then back to the verse...      Use this alternate ending 2nd time round


Solo

-----------------------------/9-7-5-3/4-3p2h3---2h3/5----------------|
---------------------------------------------------------------------|
-10\6-6/9-6h8-8p6-6\4-4h6\-------------------------------------------|
---------------------------------------------------------------------|
---------------------------------------------------------------------|
---------------------------------------------------------------------|


Bridge and Chorus


Outro solo (just play chorus chords over it)

--7h9-9^-7\----7-9^-7p6p5/9\----7-9-9^-7-5-5-7----7-5-----------------|
------------------------------------------------7-----7-5-7-5-3-5---3-|
------------------------------------------------------------------4---|
----------------------------------------------------------------------|
----------------------------------------------------------------------|
----------------------------------------------------------------------|

-----------9-------9-----------------------9-------------------------|
--5--------11^-11'-11--9h11-11p9-9\7-7/9---11^-11-9-11-11'-9---------|
----4/6\-------------------------------------------------------------|
---------------------------------------------------------------------|
---------------------------------------------------------------------|
---------------------------------------------------------------------|

/ = slide up
\ = slide down
^ = bend and return
' = release bend
' = bend up and hold
h = hammer on
p = pull off
x = deadened string
D = Downstroke
U = Upstroke


If you have any corrections, please feel free...
Comments