Sam And Dave - Hold On Im Coming Chords & Tabs

 

Hold On Im Coming Chords & Tabs

Sam And Dave Chords & Tabs

Version: 2 Type: Bass Tab

Hold On Im Coming Bass Tab

Bass performed by Donald "Duck" Dunn.
Tab doesn't incidate all the muted noted and exact timing - listen to record for this


Intro/Chorus:

G-------------------------------------------|
D-------------------------------------------|
A------------2-2-22-2--4-4-44-4-------------|
E--4-4-44-4----------------------4-4-44-0-2-|


Verse:

G-------------------------------------------|
D-------------------------------------------|
A----6---------6---------6---------6---x2---|
E--4---4-x2--4---4-x2--4---4-x2--4---4------|
[ Tab from: http://www.guitartabs.cc/tabs/s/sam_and_dave/hold_on_im_coming_btab_ver_2.html ]
G-------------------------------------------|
D----6---------6---------6---------6--------|
A--4---4-x2--4---4-x2--4---4-x2--4---4------|
E--------------------------------------x2---|

chorus x2
verse
chorus x2

Bridge: 

G-------------------------------------------|
D-------------------------------------------|
A--4---4-x234---4-x234---4-x234---4-x432----|
E----4--------4--------4--------4-----------|

G-------------------------------------------|
D-------------------------------------------|
A--2---2-x242---2-x234---4-x456---6-x63-----|
E----2--------2--------4--------6------5----|

G-------------------------------------------|
D-------------------------------------------|
A----------------------2--------4--4--------|
E--4----------2--2--------------------------|


chorus
verse
chorus to fade out