Sam Adams - Bbq Is Good Chords & Tabs

 

Bbq Is Good Chords & Tabs

Sam Adams Chords & Tabs

Version: 1 Type: Tab 0 ratings
1 star 2 stars 3 stars 4 stars 5 stars
comments

Bbq Is Good Tab

Sam Adams,BBQ is good.
 Tabbed by Josh Jones, panaphobia@hotmail.com.
  
please tell me what u think about this tab, and if it could of been played any easier.thanx.


--------------------------------------------------------0-----------
----------------------------------------------------------0--15-----
----------------------------------------------------------------14--
--------------------------------------------------------------------
--5-5--9-9--7--5--2-2---9-9--7--5--0-0---9-9--7--5------------------
--3-3--7-7--5--3--0-0---7-7--5--3--0-0---7-7--5--3------------------

play 2 times.

[ Tab from: http://www.guitartabs.cc/tabs/s/sam_adams/bbq_is_good_tab.html ]
-------------------------------------------------------------------------------------
-------------------------------------------------------------------------------------
-------------------------------------------------------------------------------------
-------------------------------------------------------------------------------------
---5-5-5-5-5-5-5-5--9-9-9-9-9--2-2-2--5-5-5-5-5--------------------------------------------------------
---3-3-3-3-3-3-3-3--7-7-7-7-7--0-0-0--3-3-3-3-3----------------------------------------------------------
p.m. all of this first 2 times , next 2 play open

Solo

---7^-5---------7^5---------l-l--0-0-0-0-0-0-0-0--0-0-0-0-0-0-0-0--0-0-0-0-0-0-0-0--0--(-0-)-------
-------7-5-7--------7-5-7---l l --5-5-5-5-5-5-5-5--3-3-3-3-3-3-3-3--1-1-1-1-1-1-1-1--0--(-0-)-------
so on and so forth

 
:: Ultimate Guitar Archive :: 
http://www.ultimate-guitar.com 



Comments