Salt Veruca - Get Back Chords & Tabs

 

Get Back Chords & Tabs

Salt Veruca Chords & Tabs

Version: 1 Type: Tab 0 ratings
1 star 2 stars 3 stars 4 stars 5 stars
comments

Get Back Tab

   
#----------------------------------PLEASE NOTE--------------------------------#
#This file is the author's own work and represents their interpretation of the#
#song. You may only use this file for private study, scholarship, or research.#
#-----------------------------------------------------------------------------#

Date: Mon, 30 Mar 1998 22:13:48 PST
From: D'ArcyZero the Goddess of Wine 
Subject: s/salt_veruca/get_back.tab

Get Back (American Thighs)
tabbed by D*Arcy (darcyzero@hotmail.com)

Verse 1
A5			G5	 C5	  D5	  C5	 G5 A5			 G5
I'm spinning out/I can't control my car/It doesn't matter
C5	 D5		  C5		  G5	  A5        G5
If you think you might be you are/I misplace it
C5	 D5			C5   G5
I don't know where it's at
A5			G5		C5		D5	  C5	 G5
And I could find it but I'd never get it back

Chorus 1
A5 C5 F5			  A5 C5 F5
	  Don't get it back		   Don't get it back
A5				  C5				 Bb5
The more you want it the less you're gonna get back

Solo: high e stg.-------------------------10----------------------
B stg.-12----13---13s10--12--13-12-13-------13--12-13-12---10--12-

e--------------12---10---8---10----------13------12------13------12
B-13-12-13--------------------12----10-------10-----10-------10----

e------12--13--15-----15---15--17--17-17--15-17-15-15s14--15-14-12-
B-10-12--13--15-----15---15----------------------------------------

e-14-12-14-12-10-12-10--10----------------------------12-----------12
B--------------------------13--13-12-13-12-10-10-9-10---10-9-10-10---

e-12-12-12-12-10-10-10-10--
B-10-10-10-10--8--8--8--8--
G--9--9--9--9--7--7--7--7--
D--------------------------
A--0--0--0--0--0--0--0--0--
E--------------------------
[ Tab from: http://www.guitartabs.cc/tabs/s/salt_veruca/get_back_tab.html ]
Chorus 2
A5 C5 F5				  A5 C5 F5
         Don't get it back		   Don't getit back
A5			 C5					Bb5
The more you want it, the less you're gonna get it back
A5			 C5					Bb5
The more you want it, the less you're gonna get it back
A5			 C5					Bb5
The more you want it, the less you're gonna get back
A5			G5	 C5    D5				C5			  G5     A5
I'm spinning out             I can't control my car

Outro Solo:

B-13----------------------------------------------------------
G----11----11----------12--12--12--12----12----12----12----12-
D-------10-----10---------------------12----12----12----------  2X
A-----------------9s10----------------------------------------  

e----------------15-14-12----12-------------------------------
B-----------13-------------15----15-13-12-13-12-----12---13---
G--0---14----------------------------------------14----14-----
D----0--------------------------------------------------------

e-------------15---15---15---15-15-15-15-15-15-15-15-15-15-15-15-15-

B--------18-------------------------------------------------
G-------------18---17--18--18---16--18---18--16-16-16-16-16-
D-----19------18---17--18--18---16--18---18--16-16-16-16-16-

e---------------13--15----15-15-15-15-15-15--13b---     e-13-
B------------16----------------------------------12 thenB-12- 13X
														G-10-
B--13----------------------------------
G-----11------11-----------------------
D--------10--------10---------------8b-
A----------------------9---10----------

chord chart
A5-577
G5-355
C5-8(10)(10)
D5-(10)(12)(12)
F5-133
Bb5-688

a couple other things, s means slide, and b means bend. for the bends in 
this song, dont bend it up a full fret, just a slight bend to accent the 
note. well thats it, hope you like it, this took a long time so enjoy.
Comments