Saliva - Your Disease Chords & Tabs

 

Your Disease Chords & Tabs

Saliva Chords & Tabs

Version: 3 Type: Tab 1 rating
1 star 2 stars 3 stars 4 stars 5 stars
comments

Your Disease Tab

Tuned down half step with the bottom E tuned down 1 ½ steps Db,Ab,Db,Gb,Bb,Eb
2 changes from the original
play the open Db along witht the other sounds more like the song
[ Tab from: http://www.guitartabs.cc/tabs/s/saliva/your_disease_tab_ver_3.html ]
Eb---9-9-9-9-9-9-9-9-10-10-10-10-10-10-10-10
Bb-----------------------------------------------------
Gb---6-6-6-6-6-6-6-6-7---7---7---7--7--7--7—7-
Db---0-0-0-0-0-0-0-0-0---0---0---0--0--0--0—0-
Ab------------------------------------------------------
Db------------------------------------------------------


Eb-5-5-5-5-5-5-5-5---3-3-3-3-3-3-3-3---1-1-1-1-1-1-1-1---3-3-3-3-3-3-3-3
Bb-5-5-5-5-5-5-5-5---3-3-3-3-3-3-3-3---1-1-1-1-1-1-1-1---3-3-3-3-3-3-3-3
Gb-7-7-7-7-7-7-7-7---5-5-5-5-5-5-5-5---3-3-3-3-3-3-3-3---5-5-5-5-5-5-5-5
Db-7-7-7-7-7-7-7-7---5-5-5-5-5-5-5-5---3-3-3-3-3-3-3-3---5-5-5-5-5-5-5-5
Ab-5-5-5-5-5-5-5-5---3-3-3-3-3-3-3-3---1-1-1-1-1-1-1-1---3-3-3-3-3-3-3-3
Db--------------------------------------------------------------------------------------

Comments