Saliva - Your Disease Chords & Tabs

 

Your Disease Chords & Tabs

Saliva Chords & Tabs

Version: 2 Type: Bass Tab 0 ratings
1 star 2 stars 3 stars 4 stars 5 stars
comments

Your Disease Bass Tab

   
Author/Artist: Saliva
Title: Your Disease
Transcribed by: Lowend
Email: bassk8er99@yahoo.com
Comments:  Notes in parenthesis play on last time
[ Tab from: http://www.guitartabs.cc/tabs/s/saliva/your_disease_btab_ver_2.html ]
First Riff
------------------------------------------------------------------------------
------------------------------------------------------------------------------
------------------------------------------------------------------------------
-3-2-0-2-0--------0-2-3-2-0-2-0--------0-2-3-2-0-2-0--------0-2-3-2-0-2-0-----
-----------2-2--2---------------2-2--2---------------2-2--2---------------2---
                                                                              
Verse
------------------------------------------------------------------------------
------------------------------------------------------------------------------
------------------------------------------------------------------------------
---0---0-2-3-3-3-3-2-2-2-2----------------------------------------------------
-2---2------------------------------------------------------------------------
                                                                              
Chorus
------------------------------------------------------------------------------
------------------------------------------------------------------------------
------------------------------------------------------------------------------
-----/9-9-9-9-7-7-7-7-5-5-5-5-5/7-7-7-7-7-9-7-9-7-5\--------------------------
-2-2-------------------------------------------------(2-2)--------------------
                                                                              
other part
------------------------------------------------------------------------------
------------------------------------------------------------------------------
------------------------------------------------------------------------------
-2-2-2-2-2-2-2-2-2-2/4-4-4-4-4-4-4--------------------------------------------
------------------------------------------------------------------------------


Band: Saliva
Song: Your Disease
CD: Every 6 Seconds
Tabbed by: Nick
Drop-D Tuning: D-A-D-G

Intro: 
G/---------------------------------
D/---------------------------------
A/-----------------4---4--4--4-----
D/--4--4--4--2h4-------------------

Verse:
G/----------------------------------------
D/----------------------------------------
A/--4--4----4--4--------------------------
D/-----------------5--5--5---5----5-------

Chorus:
G/--------------------------------------------------------------------------------
D/--------------------------------------------------------------------------------
A/--4---4--4---4--4-----2---2---2---2----2---2-----0---0---0----0---2---2----2--4-
D/--------------------------------------------------------------------------------

Bridge:
G/----------------------------------------------------------
D/----------------------------------------------------------
A/----------------------------------------------------------
D/----4---4---4------4----4----6----6-----6---6------6------
after this part go back into the chorus.

thats it , if there r any questions or problems or anything else 
email me at: pipe_dream_900@hotmail.com , thanx , enjoy!
Comments