Saliva - Two Steps Back Chords & Tabs

 

Two Steps Back Chords & Tabs

Saliva Chords & Tabs

Version: 1 Type: Tab 0 ratings
1 star 2 stars 3 stars 4 stars 5 stars
comments

Two Steps Back Tab

   
Standard Tuning
Tabed by Curtis

Intro:

Guitar 1

e ------------------------------------------------|
B ------------------------------------------------|
G --------10--8-7---------8---5-8-10--------------|
D -----10---------8-----8---6---------------------|
A ---8--------------5-6---------------------------|  x 4 end on the 8
E ------------------------------------------------|  (listen for timing)

Guitar 2 - Chorus
[ Tab from: http://www.guitartabs.cc/tabs/s/saliva/two_steps_back_tab.html ]
       F       Bb      Eb      G#
e ------------------------------------------------|
B ------------------------------------------------|
G -------------------88888------------------------|
D ---33333---88888---88888---66666----------------|
A ---33333---88888---66666---66666----------------|
E ---11111---66666-----------44444----------------|

Verse

e -----------|
B -----------|
G ---5--3----|
D -----------|
A -----------|
E -----------| x 13

  I see the end of every book...

e -------------------|
B -------------------|
G -------------------|
D ---3/6666/8888-----|
A ---3/6666/8888-----|
E ---1/4444/6666-----| then into the chorus

  And I hear the sound of all the voices...

I'm not sure about some parts I just figured it out myself so I'm still working on the 
part, that's all I figured out so far
Comments