Saliva - Survival Of The Sickest Chords & Tabs

 

Survival Of The Sickest Chords & Tabs

Saliva Chords & Tabs

Version: 3 Type: Tab 0 ratings
1 star 2 stars 3 stars 4 stars 5 stars
comments

Survival Of The Sickest Tab

Survival of The Sickest-Saliva

PM                                         4x
----------------------------------------------| 
----------------------------------------------| 
----------------------------------------------|
-6-6-4-6-8888---------------------------------|
-4-4-2-4-6666---------------------------------|
----------------------------------------------|
8x | only thing played in verse|
-----------------|---------------------------| 
-----------------|---------------------------|
-----------------|---------------------------|
-6-6-4-6-888-----|---------6-8/6---mute------|
-4-4-2-4-666-----|---------6-8/6-------------|
-4-4-2-4-666-----|---------------------------|

Pre-chorus	       2x
----------|---------------------| 
----------|---------------------|
----------|---------------------|
-6-8/4----|-6~--4~--8~--8~------|
-6-8/4----|-4~--2~--6~--6~------|
----------|-4~--2~--6~--6~------|

Chorus                               x2
-----------------------------------------| 
-----------------------------------------|
-----------------------------------------|
-6666666--4444444--8888888-8888888-------|
-6666666--4444444--8888888-8888888-------|
-4444444--2222222--6666666-6666666-------|

----------------------------| 
----------------------------|
----------------------------|
-6-6-4-6-8888---------------|
-4-4-2-4-6666---------------|
-4-4-2-4-6666---------------|
[ Tab from: http://www.guitartabs.cc/tabs/s/saliva/survival_of_the_sickest_tab_ver_3.html ]
Verse
----------------|
----------------|
--8/4---mute----|
--8/4-----------|
----------------|
----------------|

Pre-chorus	       2x
----------|---------------------| 
----------|---------------------|
----------|---------------------|
-6-8/4----|-6~--4~--8~--8~------|
-6-8/4----|-4~--2~--6~--6~------|
----------|-4~--2~--6~--6~------|



Chorus                               x2
-----------------------------------------| 
-----------------------------------------|
-----------------------------------------|
-6666666--4444444--8888888-8888888-------|
-6666666--4444444--8888888-8888888-------|
-4444444--2222222--6666666-6666666-------|

-----------------------------------------------------| 
-----------------------------------------------------|
-----------------------------------------------------|
-6-8--6-8--6-8--6-8-10-10----6-8--6-8--6-8--6-8-----|
-6-8--6-8--6-8--6-8-10-10----6-8--6-8--6-8--6-8-----|
-4-6--4-6--4-6--4-6--8--8-----4-6--4-6--4-6--4-6-----|

Hopefully someone will figure out the solo but not me sorry about that


Chorus                               x2
-----------------------------------------| 
-----------------------------------------|
-----------------------------------------|
-6666666--4444444--8888888-8888888-------|
-6666666--4444444--8888888-8888888-------|
-4444444--2222222--6666666-6666666-------|

And this solo too

That's all I could figure out 

-RicaRdo
Comments