Saliva - Survival Of The Sickest Chords & Tabs

 

Survival Of The Sickest Chords & Tabs

Saliva Chords & Tabs

Version: 1 Type: Bass Tab 0 ratings
1 star 2 stars 3 stars 4 stars 5 stars
comments

Survival Of The Sickest Bass Tab

   
INTRO 2x
E -2-2-0-2--5-5-5-|     E -2-2-0-2--5-5-5-|
A ----------------|     A ----------------|
D ----------------|     D ----------------|
G ----------------|     G ----------------|

E -2-2-0-2--5-5-5-|     E -2-2-0-2--0-0-0-|
A ----------------|     A ----------------|
D ----------------|     D ----------------|
G ----------------|     G ----------------|

VERSE 1 2x
E -22222222-00000000-77777777-55555555-|
A -------------------------------------|
D -------------------------------------|
G -------------------------------------|

REFRAIN 
E -22222222-00000000-55555555-77777777-|
A -------------------------------------|
D -------------------------------------|
G -------------------------------------|

E -22222222-00000000-55555555-77777777-|
A -------------------------------------|
D -------------------------------------|
G -------------------------------------|
 
E -22222222-00000000-77777777-55555555-|
A -------------------------------------|
D -------------------------------------|
G -------------------------------------|

E -22222222-00000000-77777777-55555555-|
A -------------------------------------|
D -------------------------------------|
G -------------------------------------|

E -2-2-0-2--5-5-5-|     E -2-2-0-2--5-5-5-|
A ----------------|     A ----------------|
D ----------------|     D ----------------|
G ----------------|     G ----------------|

E -2-2-0-2--5-5-5-|     E -2-2-0-2--0-0-0-|
A ----------------|     A ----------------|
D ----------------|     D ----------------|
G ----------------|     G ----------------|

VERSE 2 2x
E -22222222-00000000-77777777-55555555-|
A -------------------------------------|
D -------------------------------------|
G -------------------------------------|

REFRAIN 
E -22222222-00000000-55555555-77777777-|
A -------------------------------------|
D -------------------------------------|
G -------------------------------------|

E -22222222-00000000-55555555-77777777-|
A -------------------------------------|
D -------------------------------------|
G -------------------------------------|
 
E -22222222-00000000-77777777-55555555-|
A -------------------------------------|
D -------------------------------------|
G -------------------------------------|

E -22222222-00000000-77777777-55555555-|
A -------------------------------------|
D -------------------------------------|
G -------------------------------------|

E -22222222-00000000-55555555-77777777-|
A -------------------------------------|
D -------------------------------------|
G -------------------------------------|

E -22222222-00000000-55555555-|
A ----------------------------|
D ----------------------------|
G ----------------------------|

E -5-7-5-7-5-7-5-7/5-|
A -------------------|
D -------------------|
G -------------------|
[ Tab from: http://www.guitartabs.cc/tabs/s/saliva/survival_of_the_sickest_btab.html ]
E -5-7-5-7-5-7-5-7/5-|
A -------------------|
D -------------------|
G -------------------|

SOLO
E -22222222-00000000-77777777-55555555-|
A -------------------------------------|
D -------------------------------------|
G -------------------------------------|

E -22222222-00000000-77777777-55555555-|
A -------------------------------------|
D -------------------------------------|
G -------------------------------------|

E -2--------0--------7--------5--------|
A -------------------------------------|
D -------------------------------------|
G -------------------------------------|

E -2--------0--------7--------5--------|
A -------------------------------------|
D -------------------------------------|
G -------------------------------------|

E -2--------0--------7--------5--------|
A -------------------------------------|
D -------------------------------------|
G -------------------------------------|

E -2--------0--------7-|
A ---------------------|
D ---------------------|
G ---------------------|

BRIDGE
E -22222222-00000000-77777777-55555555-|
A -------------------------------------|
D -------------------------------------|
G -------------------------------------|

E -22222222-00000000-77777777-55555555-|
A -------------------------------------|
D -------------------------------------|
G -------------------------------------|

E -22222222-00000000-77777777-55555555-|
A -------------------------------------|
D -------------------------------------|
G -------------------------------------|

E -22222222-00000000-77777777-55555555-|
A -------------------------------------|
D -------------------------------------|
G -------------------------------------|

E -22222222-00000000-5-5-|
A -----------------------|
D -----------------------|
G -----------------------|

REFRAIN
E -22222222-00000000-77777777-55555555-|
A -------------------------------------|
D -------------------------------------|
G -------------------------------------|

E -22222222-00000000-77777777-55555555-|
A -------------------------------------|
D -------------------------------------|
G -------------------------------------|

E -22222222-00000000-55555555-77777777-|
A -------------------------------------|
D -------------------------------------|
G -------------------------------------|

E -22222222-00000000-55555555-|
A ----------------------------|
D ----------------------------|
G ----------------------------|

E -5-7-5-7-5-7-5-7/5-|
A -------------------|
D -------------------|
G -------------------|

E -5-7-5-7-5-7-5-7/5----2-------------2-|
A --------------------------------------|
D --------------------------------------|
G --------------------------------------|

Some parts (mainly the end) i'm not to sure of, 
but for the most part its correct.
If you have any questions or corrections e-mail me:
Black_Rose_Bassist@Yahoo.com
Comments