Saliva - Rest In Pieces Chords & Tabs

 

Rest In Pieces Chords & Tabs

Saliva Chords & Tabs

Version: 1 Type: Tab 0 ratings
1 star 2 stars 3 stars 4 stars 5 stars
comments

Rest In Pieces Tab

   
Saliva
Rest In Pieces
Tabbed By: Brent Abbott
Email: Brent_Abbott@hotmail.com

Authors Note: This is my very first tab. But i'm pretty sure this
is accurate, probably not 100% but it is close. If you have
any questions or comments feel free to email me. 

Intro slowly fades in
                  
Verses                             Play this chord on the last time
Riff A                             playing riff A
E|---------3--1-------------------|--0-|
B|-------2------2-1-------2---2---|--0-|
G|-----2-----------------2--0---1-|--1-|
D|---2-----------------2----------|----|
A|-0-----------------1------------|----|
E|--------------------------------|----|
[ Tab from: http://www.guitartabs.cc/tabs/s/saliva/rest_in_pieces_tab.html ]
Chorus
Riff B
E|--------------------------------------------
B|--------------------------------------------
G|--------------------------------------------
D|--8-8-8-8-8-8-8-8--11-11-11-11-11-11-11-11--
A|--8-8-8-8-8-8-8-8--11-11-11-11-11-11-11-11--
E|--6-6-6-6-6-6-6-6---9--9--9--9--9--9--9--9--

E|-------------------------------------|
B|-------------------------------------|
G|-------------------------------------|
D|--8-8-8-8-8-8-8-8--6-6-6-6-6-6-6-6-6-|
A|--8-8-8-8-8-8-8-8--6-6-6-6-6-6-6-6-6-|
E|--6-6-6-6-6-6-6-6--4-4-4-4-4-4-4-4-4-|

thats the whole song, seems simple huh? well just remember i'm not sure if the
verses are correct, if you have the correct version then by all means please email me
it. but I am almost definatly sure that the chorus riff is correct. Thanks

Brent
Comments