Saliva - I Want You Chords & Tabs

 

I Want You Chords & Tabs

Saliva Chords & Tabs

Version: 1 Type: Tab

I Want You Tab

Very easy Song from Saliva's Survival of the Sickest
chorus/intro
e---------------------------------------------------------|
b---------------------------------------------------------|
g---------------------------------------------------------|
d----6-6-6---2-2-2---4-4-4/-/6-6--------------------------|Repeat This riff
a----6-6-6---2-2-2---4-4-4/-/6-6--------------------------|4 times
d----6-6-6---2-2-2---4-4-4/-/6-6--------------------------|
 this is the little lead part played over the intro
e---------------------------------------------------------|
b---------------------------------------------------------|
g---8--4--3--1--3--4----8--4--3--1--3--4------------------|or play it on the
d---13--9--8--6--8--9----13--9--8--6--4/-/6---------------|D string I think
a---------------------------------------------------------|it is played on
d---------------------------------------------------------|the D string      cause I 
it goes down to 4 then slides back to 6 at the end


this is the verse
e---------------------------------------------------------|
b---------------------------------------------------------|
g---------------------------------------------------------|
d----2/-/6-6-6---2-2/-/4-4-4---2-2------------------------|
a----2/-/6-6-6---2-2/-/4-4-4---2-2------------------------|
d----2/-/6-6-6---2-2/-/4-4-4---2-2------------------------|   They do this little palm 
thing on the verse just listen to the song to figure it out
This is the song minus the solo which I never can seem to figure out on any song.... lol 
It should be pretty correct it sounds good anyway
[ Tab from: http://www.guitartabs.cc/tabs/s/saliva/i_want_you_tab.html ]