Saliva - Hollywood Chords & Tabs

 

Hollywood Chords & Tabs

Saliva Chords & Tabs

Version: 1 Type: Tab 0 ratings
1 star 2 stars 3 stars 4 stars 5 stars
comments

Hollywood Tab

Artist: Saliva
Album: Every Six Seconds
Song Title (Track): Hollywood (Track 10)

Standard E Tuning

From what I read, this song is played mainly on a lapsteel but I tabbed it on my guitar and 

it sounds really good, the solo is kinda off but it'll suffice.

Play the opening intro very low as the Verse's Riff.

Intro/Verse Riff
E---------------------------|
B-6b7-7-7-6-6---------------|
G-------------5-5-5-5h6p5-5-|
D---------------------------|
A---------------------------|
E---------------------------|

Chorus
E-------------------|
B---10/12\10-7-5~---|
G-7---------------9-|Don't let the 9 Note on the G string Ring out very much
D-------------------|
A-------------------|
E-------------------|
Note: When you slide from 10 to 12 on the B string Let that slide ring out a little bit, 

and without lifting your finger slide back to 10.

Solo
E-----------------------------------------|
B------11-11-9-11\9-9-7-----7h9------7h9--|
G-9h11------------------7h9-----11\9------|
D-----------------------------------------|
A-----------------------------------------|
E-----------------------------------------|
[ Tab from: http://www.guitartabs.cc/tabs/s/saliva/hollywood_tab.html ]
E-----------------------------------------|
B---11-11\9---9-------13-131313-13/21v~---|
G-11---------9---11h13--------------------|
D-----------------------------------------|
A-----------------------------------------|
E-----------------------------------------|

E-------------------------------------------|
B-------------11/13/15/19-------13h15-15/21-|
G-11/13/15/19-------------13h15-------------|
D-------------------------------------------|
A-------------------------------------------|
E-------------------------------------------|

E--------------------------------------|
B-------------11/13/15/19-------13h15~-|
G-11/13/15/19-------------13h15--------|
D--------------------------------------|
A--------------------------------------|
E--------------------------------------|

Bridge
E---------|--------------|
B---------|--------------|
G---------|-----------9~-|
D---------|--------------|
A-3h5-2-3-|-3-5-3-2-3----|
E-3h5-2-3-|-3-5-3-2-3----|

________________________________________________________________________________

Song Order

Intro/Verse Riff - X 2
Chorus - No Vocals - X 4
Intro/Verse Riff - X 4
Chorus - X 4
Intro/Verse Riff - X 4
Solo
Chorus - X 4
Bridge - X 2
Intro/Verse Riff - X 4
Comments