Saliva - Doperide Chords & Tabs

 

Doperide Chords & Tabs

Saliva Chords & Tabs

Version: 2 Type: Tab 0 ratings
1 star 2 stars 3 stars 4 stars 5 stars
comments

Doperide Tab

Saliva - Doperide
[ Tab from: http://www.guitartabs.cc/tabs/s/saliva/doperide_tab_ver_2.html ]
e|-----------------------------------------------------------------------|
B|-----------------------------------------------------------------------|
G|-----------------------------------------------------------------------|
D|-2-4-5-2-4-5-4-5-------------------------------------------------------|
A|-2-4-5-2-4-5-4-5-------------------------------------------------------|
E|-0-2-3-0-2-3-2-3-------------------------------------------------------|
Verse
e|-----------------------------------------------------------------------|
B|-----------------------------------------------------------------------|
G|-----------------------------------------------------------------------|
D|--5-5--7--5/7/5/7------------------------------------------------------|
A|--5-5--7--5/7/5/7------------------------------------------------------|
E|--3-3--5--3/5/3/5------------------------------------------------------|

chorus same as intro
Comments