Saliva - Click Click Boom Chords & Tabs

 

Click Click Boom Chords & Tabs

Saliva Chords & Tabs

Version: 9 Type: Tab 0 ratings
1 star 2 stars 3 stars 4 stars 5 stars
comments

Click Click Boom Tab

   
-------------------------------------------------------------------------------
			     CLICK CLICK BOOM - SALIVA
-------------------------------------------------------------------------------
Tabbed by: dio1
Email: dionisios@comcast.net (Email me and tell me what you think)

Tuning: Drop D

   INTRO X 4
e|---------------------------------------------------------------------------|
B|---------------------------------------------------------------------------|
G|---------------------------------------------------------------------------|
D|---------------------------------------------------------------------------|
A|---0-10-12-10---5-5-5-5-3-3h5---0-10-12-10---------------------------------|
D|---0-10-12-10---5-5-5-5-3-3h5---0-10-12-10---------------------------------|
[ Tab from: http://www.guitartabs.cc/tabs/s/saliva/click_click_boom_tab_ver_9.html ]
   VERSE X 8 (palm mute first 4 times)   
e|---------------------------------------------------------------------------|
B|---------------------------------------------------------------------------|
G|---------------------------------------------------------------------------|
D|---------------------------------------------------------------------------|
A|---0-1-1-3--3h5p3----------------------------------------------------------|
D|---0-1-1-3--3h5p3----------------------------------------------------------|
  
   INTRO X 4
e|---------------------------------------------------------------------------|
B|---------------------------------------------------------------------------|
G|---------------------------------------------------------------------------|
D|---------------------------------------------------------------------------|
A|---0-10-12-10---5-5-5-5-3-3h5---0-10-12-10---------------------------------|
D|---0-10-12-10---5-5-5-5-3-3h5---0-10-12-10---------------------------------|
   
   INTERLUDE X 2
e|---------------------------------------------------------------------------|
B|---------------------------------------------------------------------------|
G|---------------------------------------------------------------------------|
D|---------------------------------------------------------------------------|
A|---8-8-8-8---5-5-5-5-------------------------------------------------------|
D|---8-8-8-8---5-5-5-5-------------------------------------------------------|
   
   INTRO X 2
e|---------------------------------------------------------------------------|
B|---------------------------------------------------------------------------|
G|---------------------------------------------------------------------------|
D|---------------------------------------------------------------------------|
A|---0-10-12-10---5-5-5-5-3-3h5---0-10-12-10---------------------------------|
D|---0-10-12-10---5-5-5-5-3-3h5---0-10-12-10---------------------------------|
   
   VERSE X 8 (palm mute first 4 times)   
e|---------------------------------------------------------------------------|
B|---------------------------------------------------------------------------|
G|---------------------------------------------------------------------------|
D|---------------------------------------------------------------------------|
A|---0-1-1-3--3h5p3----------------------------------------------------------|
D|---0-1-1-3--3h5p3----------------------------------------------------------|

   INTRO X 4
e|---------------------------------------------------------------------------|
B|---------------------------------------------------------------------------|
G|---------------------------------------------------------------------------|
D|---------------------------------------------------------------------------|
A|---0-10-12-10---5-5-5-5-3-3h5---0-10-12-10---------------------------------|
D|---0-10-12-10---5-5-5-5-3-3h5---0-10-12-10---------------------------------|

   INTERLUDE X 2
e|---------------------------------------------------------------------------|
B|---------------------------------------------------------------------------|
G|---------------------------------------------------------------------------|
D|---------------------------------------------------------------------------|
A|---8-8-8-8---5-5-5-5-------------------------------------------------------|
D|---8-8-8-8---5-5-5-5-------------------------------------------------------|

 INTRO X 4
e|---------------------------------------------------------------------------|
B|---------------------------------------------------------------------------|
G|---------------------------------------------------------------------------|
D|---------------------------------------------------------------------------|
A|---0-10-12-10---5-5-5-5-3-3h5---0-10-12-10---------------------------------|
D|---0-10-12-10---5-5-5-5-3-3h5---0-10-12-10---------------------------------|

   BRIDGE X 2(on the second time don't slide down,hold 7th fret)
e|---------------------------------------------------------------------------|
B|---------------------------------------------------------------------------|
G|---------------------------------------------------------------------------|
D|---------------------------------------------------------------------------|
A|---12\8--10\5--12\8--7\5---------------------------------------------------|
D|---12\8--10\5--12\8--7\5---------------------------------------------------|
   INTRO X 4
e|---------------------------------------------------------------------------|
B|---------------------------------------------------------------------------|
G|---------------------------------------------------------------------------|
D|---------------------------------------------------------------------------|
A|---0-10-12-10---5-5-5-5-3-3h5---0-10-12-10---------------------------------|
D|---0-10-12-10---5-5-5-5-3-3h5---0-10-12-10---------------------------------|

That's the whole song! Please rate or Email me!

| /  slide up
| \  slide down
| h  hammer-on
| p  pull-off
| ~  vibrato
| +  harmonic
| x  Mute note
===============================================================================
Comments