Saliva - Click Click Boom Chords & Tabs

 

Click Click Boom Chords & Tabs

Saliva Chords & Tabs

Version: 3 Type: Bass Tab 0 ratings
1 star 2 stars 3 stars 4 stars 5 stars
comments

Click Click Boom Bass Tab

   
Every Thing is perfect, Have Fun Rockin!

Tuning: Normal E,A,D,G

Intro/Chorus:
G|-----------------------------|
D|-----------------------------|
A|-4-2-4-2---------4-2-4-2-----|
E|---------2-2-2-1-------------| (x4)

Pre-chorus:
G|---------------------------|
D|---------------------------|
A|-4-4-4-5--5-5-5-6--7-7-7-7-|
E|---------------------------| (x8)

Chorus (x4) 
[ Tab from: http://www.guitartabs.cc/tabs/s/saliva/click_click_boom_btab_ver_3.html ]
Bridge:
G|----------------------------------------------------|
D|----------------------------------------------------|
A|-4-4-4-4-4-4-4-4-4-4-4-4--2-2-2-2-2-2-2-2-2-2-2-2-2-|
E|----------------------------------------------------| (x2)

Chorus (x4)

Riff:
G|----------------------------|
D|----------------------------|
A|-4-4--2-2-2-2---------------|
E|---------------4-4--2-2-2-2-| (x8)
Chorus (x2)
And Now Your Done!
Comments