Saliva - Click Click Boom Chords & Tabs

 

Click Click Boom Chords & Tabs

Saliva Chords & Tabs

Version: 2 Type: Bass Tab 0 ratings
1 star 2 stars 3 stars 4 stars 5 stars
comments

Click Click Boom Bass Tab

   
-------------------------------------------------------------------------------
			     Click Click Boom - Saliva
-------------------------------------------------------------------------------
Tabbed By : Zero is great man 
Tuning: Standard: Right: EADG
Artist: Saliva
Album: Every six seconds.
Song: Click Click Boom
Written by : Josey Scott.

Intro/Chorus: 
G|------------------------------|
D|------------------------------| 
A|-4-2-2-4-2---------4--2-2-4-2-|
E|-----------2-2-2-2------------|
[ Tab from: http://www.guitartabs.cc/tabs/s/saliva/click_click_boom_btab_ver_2.html ]
Pre-chorus:
G|---------------------------|
D|---------------------------|
A|-4-4-4-4--5-5-5-5--7-7-7-7-|
E|---------------------------|

Bridge:
G|------------------------------|
D|------------------------------|
A|-2-2-2-2-2-2-2--4-4-4-4-4-4-4-|
E|------------------------------|


Riff:
G|----------------------------|
D|----------------------------|    
A|-4-4--2-2-2-2---------------|
E|---------------4-4--2-2-2-2-|

| /  slide up
| \  slide down
| h  hammer-on
| p  pull-off
| ~  vibrato
| +  harmonic
| x  Mute note
===============================================================================
Comments