Saliva - Always Chords & Tabs

 

Always Chords & Tabs

Saliva Chords & Tabs

Version: 1 Type: Tab 0 ratings
1 star 2 stars 3 stars 4 stars 5 stars
comments

Always Tab

                             saliva- always
 Tuned down one half step in drop-D
Tabbed for guitar by Alex Barrett



    verse 1-clean sound                                                 
Eb--------------------------------------------------|-------------------
Bb--------------------------------------------------|-------------------
Gb--------------------------------------------------|-------------------
Db--------2-----------5-----------0-----------7-----|-------------------
Ab-----2-----------5-----------0-----------7--------|-------------------
Db--2--------2--5--------5--0--------0--7--------7--|-------------------
                                                                        

    prechorus- clean sound                                              
Eb----------------------------------------------------------------------
Bb----------------------------------------------------------------------
Gb----------------------------------------------------------------------
Db--7--7--7--7--7--7--7--5--5--5--5--5--5--5--7--7--7--7--7--7--7-------
Ab--7--7--7--7--7--7--7--5--5--5--5--5--5--5--7--7--7--7--7--7--7-------
Db--7--7--7--7--7--7--7--5--5--5--5--5--5--5--7--7--7--7--7--7--7-------
                                                                        

                                                                        
Eb----------------------------------|-----------------------------------
Bb----------------------------------|-----------------------------------
Gb----------------------------------|-----------------------------------
Db--10--10--10--10--12--12--12--12--|-----------------------------------
Ab--10--10--10--10--12--12--12--12--|-----------------------------------
Db--10--10--10--10--12--12--12--12--|-----------------------------------
                                                                        

    chorus2                                                             
Eb--------------------------------------------------------------|-------
Bb--------------------------------------------------------------|-------
Gb--------------------------------------------------------------|-------
Db--2--2--x--x-----5--5--x--x-----0--0--x--x-----7--7--x--x-----|-------
Ab--2--2--x--x-----5--5--x--x-----0--0--x--x-----7--7--x--x-----|-------
Db--2--2--x--x-----5--5--x--x-----0--0--x--x-----7--7--x--x-----|-------
                                                                        

    chorus 2 -distortion                                                
Eb--------------------------------------------------|-------------------
Bb--------------------------------------------------|-------------------
Gb--------------------------------------------------|-------------------
Db--2--2--2--2--5--5--5--5--0--0--0--0--7--7--7--7--|-------------------
Ab--2--2--2--2--5--5--5--5--0--0--0--0--7--7--7--7--|-------------------
Db--2--2--2--2--5--5--5--5--0--0--0--0--7--7--7--7--|-------------------
                                                                        
[ Tab from: http://www.guitartabs.cc/tabs/s/saliva/always_tab.html ]
    verse 2 -clean sound                                                
Eb---------------------------------------------------|------------------
Bb--8--7--5-----8--7--5-----8--7--5-----7--8--10-----|------------------
Gb---------------------------------------------------|------------------
Db---------------------------------------------------|------------------
Ab---------------------------------------------------|------------------
Db---------------------------------------------------|------------------
                                                                        

    bridge- distortion                                                  
Eb----------------------------------------------------------------------
Bb----------------------------------------------------------------------
Gb----------------------------------------------------------------------
Db--7--7--7--7--7--7--7--5--5--5--5--5--5--5--2--2--x--x--2--2--3--2----
Ab--7--7--7--7--7--7--7--5--5--5--5--5--5--5--2--2--x--x--2--2--3--2----
Db--7--7--7--7--7--7--7--5--5--5--5--5--5--5--2--2--x--x--2--2--3--2----
                                                                        

                                                                        
Eb--------------------|-------------------------------------------------
Bb--------------------|-------------------------------------------------
Gb--------------------|-------------------------------------------------
Db--2--x--x--2--2--3--|-------------------------------------------------
Ab--2--x--x--2--2--3--|-------------------------------------------------
Db--2--x--x--2--2--3--|-------------------------------------------------
                                                                        

    outro-clean sound                                                   
Eb----------------------------------------------------------------------
Bb--7--8--5-------------------------------------------------------------
Gb----------------------------------------------------------------------
Db----------------------------------------------------------------------
Ab----------------------------------------------------------------------
Db----------------------------------------------------------------------
                                                                        

song structure: 
 
verse 1 x4 
prechorus x1 
chorus 1 x2 
chorus 2 x2 
verse 2 x8 
prechorus x8 
chorus 1 x2 
chorus 2 x2 
chorus 1 x1 
bridge x2 
verse 1 x4 
chorus1 x2 
chorus2 x6 
chorus1 x1 
outro until song ends 


                                                                        
Eb--|-------------------------------------------------------------------
Bb--|-------------------------------------------------------------------
Gb--|-------------------------------------------------------------------
Db--|-------------------------------------------------------------------
Ab--|-------------------------------------------------------------------
Db--|-------------------------------------------------------------------
                                                                        

Comments