Saliva - After Me Chords & Tabs

 

After Me Chords & Tabs

Saliva Chords & Tabs

Version: 2 Type: Tab 0 ratings
1 star 2 stars 3 stars 4 stars 5 stars
comments

After Me Tab

   
This song is kick ass. 
Tuning: C# A D G B E low to high
Intro(muted)
|-------------------------------------------------------------|
|-------------------------------------------------------------|
|-------------------------------------------------------------|
|-------------------------------------------------------------|
|-------------------------------------------------------------|
|-0--7--0--7--0--5-5-5-5-5-5/8--8--8-8-8\7--7--7--------------|

Distorted
|-------------------------------------------------|
|-------------------------------------------------|
|-------------------------------------------------|
|-------------------------------------------------|    REPEAT TWICE
|-------------------------------------------------|
|-0--7--0--7-0--5-5-5-5-5-5--3--8--8-8-8-8\7--7--7|

|---------------------------------------------|
|---------------------------------------------|
|---------------------------------------------|  REPEAT FOUR TIMES
|---4--6--4---------4--7--6-------------------|
|-4--------------4----------------------------|
|---------------------------------------------|

|-----------------------------------------------|
|-----------------------------------------------|
|-6------4-----2-----4------6------4-----2----4-|
|-6------4-----2-----4------6------4-----2----4-|
|-4------2-----0-----2------4------2-----0----2-|
|-----------------------------------------------|
[ Tab from: http://www.guitartabs.cc/tabs/s/saliva/after_me_tab_ver_2.html ]
"THE WORLD IS AFTER ME..."
|----------------------------------------------------|
|----------------------------------------------------|
|----------------------------------------------------|  REPEAT TWICE
|----------------------------------------------------|
|----------------------------------------------------|
|-0--7--0--7--0--5--5-5-5-5-5--3--8--8-8-8-8\7--7--7-|

|----------------------------------------------------|
|----------------------------------------------------|
|----------------------------------------------------|
|---4--6--4------4--7--6-----------------------------|   REPEAT FOUR TIMES
|-4------------4-------------------------------------|
|----------------------------------------------------|

|----------------------------------------------------|
|----------------------------------------------------|
|-6-------4------2-------4-------6-----4------2----4-|
|-6-------4------2-------4-------6-----4------2----4-|
|-4-------2------0-------2-------4-----2------0----4-|
|----------------------------------------------------|

|----------------------------------------------------|
|----------------------------------------------------|
|----------------------------------------------------|  REPEAT TWICE
|----------------------------------------------------|
|----------------------------------------------------|
|-0--7--0--7--0--5--5-5-5-5-5--3--8--8-8-8-8\7--7--7-|

|----------------------------------------------------|
|----------------------------------------------------|
|----------------------------------------------------|
|-6/7-7-7----6/7-7-7------6/7-7-7----6/7-7-7---9--11-|
|-6/7-7-7----6/7-7-7------6/7-7-7----6/7-7-7---9--11-|
|-7/8-8-8----7/8-8-8------7/8-8-8----7/8-8-8--10--12-|  
Comments