Salem - Peach Tree Chords & Tabs

 

Peach Tree Chords & Tabs

Salem Chords & Tabs

Version: 1 Type: Bass Tab 0 ratings
1 star 2 stars 3 stars 4 stars 5 stars
comments

Peach Tree Bass Tab

   
-------------------------------------------------------------------------------
			    Peach Tree - Salem
-------------------------------------------------------------------------------

Tabbed By : SalemBassist
e-mail: 

Tuning: Regular

G|---------------------------------------------------------------------------|
D|---------------------------------------------------------------------------|
A|---------------------------------------------------------------------------|
E|0~-------------------------------------------------------------------------|
       You let this ring while the guitar intro finishes out.. 

G|---------------------------------------------------------------------------|
D|---------------------------------------------------------------------------|
A|---------------------------------------------------------------------------|
E|12-12-12----12-12-12----12-12---12~-------8-8-8----8-8-8---8-8---8-0-------|
     Riff 1..  You play this all the way untill the bass solo...

G|---------------------------------------------------------------------------|
D|---------------------------------------------------------------------------|
A|------14-----------14------------------10-------10-------------------------|
E|12-12-----12-12-12-----12-12-0-----8-8----8-8-8----8-8-0-------------------|
    This is the bass solo... its nothing really. pretty easy.. 
[ Tab from: http://www.guitartabs.cc/tabs/s/salem/peach_tree_btab.html ]
G|---------------------------------------------------------------------------|
D|---------------------------------------------------------------------------|
A|------14----------14-14-12-10---------10-------10--------------------------|
E|12-12----12-12-12-----------------8-8----8-8-8----8-8-0--------------------|
        continued solo..
G|---------------------------------------------------------------------------|
D|---------------------------------------------------------------------------|
A|------14-14---12-12-12---12-12-10-10-9-9-9---------------------------------|
E|12 12 ---------------------------------------------------------------------|
        continues solo..                                                2 Times
G|---------------------------------------------------------------------------|
D|---------------------------------------------------------------------------|
A|----10-10-9-9-9--9-9-10-10-12-12-12----------------------------------------|
E|8-8------------------------------------------------------------------------|
        continued solo..                                                
G|----------------9-9-9---9-9-9---9-9-9--9-9-9-------------------------------|
D|---------------------------------------------------------------------------|
A|----10-10-9-9-9------------------------------------------------------------|
E|8-8------------------------------------------------------------------------|
   
    Then go back to the main riff



| ~  let ring
Comments