Salbakuta - Di Ako Karapat Dapat Chords & Tabs

 

Di Ako Karapat Dapat Chords & Tabs

Salbakuta Chords & Tabs

Version: 1 Type: Tab 0 ratings
1 star 2 stars 3 stars 4 stars 5 stars
comments

Di Ako Karapat Dapat Tab

   
Intro [C-F(FM7)-C6-F6 C.P]


Chorus:
[ Tab from: http://www.guitartabs.cc/tabs/s/salbakuta/di_ako_karapat_dapat_tab.html ]
e|--------------------------------------|
B|--------------------------------------|
G|---5--5------------------5------------|
D|--------5-5--3-2-3--3/5---------------|
A|--------------------------------------|
E|--------------------------------------|


e|--------------------------------------|
B|--------------------------------------|
G|---5-5/7--5-4--5-5--------------------|
D|--------------------5--3-3--5-5-------|
A|--------------------------------------|
E|--------------------------------------|

 Repeat 
Comments