Saintins Son - Why Chords & Tabs

 

Why Chords & Tabs

Saintins Son Chords & Tabs

Version: 1 Type: Tab 0 ratings
1 star 2 stars 3 stars 4 stars 5 stars
comments

Why Tab

                                   Why?


this is the song why and is verry easy


(main riff)
|---------------------------------------|
|---------------------------------------|
|---------------------------------------|
|--8--8----3--3--3----6--6----8--8--8---|
|--8--8----3--3--3----6--6----8--8--8---|
|--6--6----1--1--1----4--4----6--6--6---|




|---------------------------------------|
|---------------------------------------|
|---------------------------------------|
|--8--8----3--3--3----6--6----8--8--8---|
|--8--8----3--3--3----6--6----8--8--8---|
|--6--6----1--1--1----4--4----6--6--6---|




|---------------------------------------|
|---------------------------------------|
|---------------------------------------|
|--8--8----3--3--3----6--6----8--8--8---|
|--8--8----3--3--3----6--6----8--8--8---|
|--6--6----1--1--1----4--4----6--6--6---|







|---------------------------------------|
|---------------------------------------|
|---------------------------------------|
|--8--8----3--3--3----6--6----8--8--8---|
|--8--8----3--3--3----6--6----8--8--8---|
|--6--6----1--1--1----4--4----6--6--6---|



(Chors)
|-----------------------------------|
|-----------------------------------|
|-----------------------------------|
|--6---3--3(3)-x-x---8---4--4(4)----|
|--6---3--3(3)-x-x(x)8---4-x4(4)----|
|--4---1--1(1)-x-x(x)6---2-x2(2)----|



[ Tab from: http://www.guitartabs.cc/tabs/s/saintins_son/why_tab.html ]
|-----------------------------------|
|-----------------------------------|
|-----------------------------------|
|--6---3--3(3)-x-x---8---4--4(4)----|
|--6---3--3(3)-x-x(x)8---4-x4(4)----|
|--4---1--1(1)-x-x(x)6---2-x2(2)----|



|-----------------------------------|
|-----------------------------------|
|-----------------------------------|
|--6---3--3(3)-x-x---8---4--4(4)----|
|--6---3--3(3)-x-x(x)8---4-x4(4)----|
|--4---1--1(1)-x-x(x)6---2-x2(2)----|




|-----------------------------------|
|-----------------------------------|
|-----------------------------------|
|--6---3--3(3)-x-x---8---4--4(4)----|
|--6---3--3(3)-x-x(x)8---4-x4(4)----|
|--4---1--1(1)-x-x(x)6---2-x2(2)----|




|-----------------------------------|
|-----------------------------------|
|-----------------------------------|
|--6---3--3(3)-x-x---8---4--4(4)----|
|--6---3--3(3)-x-x(x)8---4-x4(4)----|
|--4---1--1(1)-x-x(x)6---2-x2(2)----|



Main Riff

|---------------------------------------|
|---------------------------------------|
|---------------------------------------|
|--8--8----3--3--3----6--6----8--8--8---|
|--8--8----3--3--3----6--6----8--8--8---|
|--6--6----1--1--1----4--4----6--6--6---|




|---------------------------------------|
|---------------------------------------|
|---------------------------------------|
|--8--8----3--3--3----6--6----8--8--8---|
|--8--8----3--3--3----6--6----8--8--8---|
|--6--6----1--1--1----4--4----6--6--6---|







|---------------------------------------|
|---------------------------------------|
|---------------------------------------|
|--8--8----3--3--3----6--6----8--8--8---|
|--8--8----3--3--3----6--6----8--8--8---|
|--6--6----1--1--1----4--4----6--6--6---|





then go back to the chours






Comments