Saint Seiya - Mimes Arp Chords & Tabs

 

Mimes Arp Chords & Tabs

Saint Seiya Chords & Tabs

Version: 1 Type: Tab 0 ratings
1 star 2 stars 3 stars 4 stars 5 stars
comments

Mimes Arp Tab

Seint Seiya - Mime's Arp


e |------------------------------------------
B |--------------------------------10-8-7-5--
G |-------9---12-11---11---------------------
D |-9---9----------------9---9---9-----------
A |------------------------------------------
E |------------------------------------------

[ Tab from: http://www.guitartabs.cc/tabs/s/saint_seiya/mimes_arp_tab.html ]
e |--------------------------------------------------
B |-5-7-8-8/10---10-12-13-7/8---8---8---8------------
G |---------------------------------------4-6-8-8/9--
D |--------------------------------------------------
A |--------------------------------------------------
E |--------------------------------------------------
Comments