Saint Seiya - Blue Dream Chords & Tabs

 

Blue Dream Chords & Tabs

Saint Seiya Chords & Tabs

Version: 1 Type: Tab 1 rating
1 star 2 stars 3 stars 4 stars 5 stars
comments

Blue Dream Tab

SAINT SEIYA SOUNDTRACK
Song: Blue Dream
Artist: Hironobu Kageyama & BROADWAY
Tabbed by Koriel (luif@walla.com)

(~) Vibrato, actully let it ring
(/) Slide
(h) hammer on
(p) pull off

INTRO

[Originally this is made by a Bass]
e|-------------------------------------------
B|-------------------------------------------
G|-------------------------------------------
D|-------------------------------------------
A|-------------------------------------------
E|------------------9~-9h11/7~--5-7/9~---3~--

[Made by piano]
e|-12-10-8-----------------------------------
B|----------10-8~-5-10~----------------------
G|-------------------------------------------
D|-------------------------------------------
A|-------------------------------------------
E|-------------------------------------------

VERSE
[ Tab from: http://www.guitartabs.cc/tabs/s/saint_seiya/blue_dream_tab.html ]
e|-------------------------------------------
B|-------------------------------------------
G|-------------------------------------------
D|------9~--7h9p7-5-7-----9-7-5-0-9-7--------
A|--7~----------------5~--------------9-5-7~-
E|-------------------------------------------

e|-------------------------------------------
B|-------------------------------------------
G|-------------------------------------------
D|------------5h7p5-3-5~--7-5-3--------------
A|--5-7-9-7/5-------------------3-5----------
E|----------------------------------7~-------

Repeat VERSE again

e|-------------------------------------------
B|-------------------------------------------
G|-------------------------------------------
D|----5-7--7-9-11-9-7-5~--5-7-9-7-5--3-------
A|--7-----------------------------------5--7~
E|-------------------------------------------

e|-------------------------------------------
B|-------------------------------------------
G|-------------------------------------------
D|----5-7--7-9-11-9-7-5~--5-9-7-5--3---------
A|--7---------------------------------5--7~--
E|-------------------------------------------


That's all for now... in case of doubts, corrections or sugestions send an e-mail.
(Koriel)
Comments