Sahara Hotnights - With Or Without Control Chords & Tabs

 

With Or Without Control Chords & Tabs

Sahara Hotnights Chords & Tabs

Version: 1 Type: Tab 0 ratings
1 star 2 stars 3 stars 4 stars 5 stars
comments

With Or Without Control Tab

   
With or Without Control by SAHARA HOTNIGHTS
Tabbed by: bec (benfolds_five@hotmail.com)



INTRO:

Guitar 1
e|---------------------------------------------------------------------------|
B|---------------------------------------------------------------------------|
G|---6---4-------------------4/6-4---4-4-4/6---------------------------------|
D|-4---4---7-4---7-4-7/9-7---------7---------4---7---3-4---------------------|
A|-------------------------------------------------7-------------------------|
E|---------------------------------------------------------------------------|x2

Guitar 2
   F#5     A5           B5  C5/D5     
e|---------------------------------------------------------------------------|
B|-7-7-7-7/10-10-10-10-------------------------------------------------------|
G|-6-6-6-6/-9--9--9--9--4-4--6/7-7-7-----------------------------------------|
D|-4-4-4-4/-7--7--7--7--4-4--6/7-7-7-----------------------------------------|
A|----------------------2-2--4/5-5-5-----------------------------------------|
E|---------------------------------------------------------------------------|x4


VERSE:

Guitar 1 (riff played before every chord sequence)
e|---------------------------------------|--/4~~-----------------------------|
B|---------------------------------------|-----------------------------------|
G|---6---4-------------------------------|-----------------------------------|
D|-4---4---7-4---------------------------|-----------------------------------|
A|---------------------------------------|-----------------------------------|
E|------------------------------------x4-|-----------------------------------|x2

Guitar 2                                    C#maj7 
e|---------------------------------------|--4-4-4-4-4-4-4-4------------------|
B|-7-7-7-7/10-10-10-10-------------------|--6-6-6-6-6-6-6-6------------------|
G|-6-6-6-6/-9--9--9--9--4-4--6/7-7-7-----|--6-6-6-6-6-6-6-6------------------|
D|-4-4-4-4/-7--7--7--7--4-4--6/7-7-7-----|--6-6-6-6-6-6-6-6------------------|
A|----------------------2-2--4/5-5-5-----|--4-4-4-4-4-4-4-4------------------|
E|------------------------------------x4-|-----------------------------------|x2

INTRO x1
VERSE x1

CHORUS:

Guitar 1
e|-----------------------------------------|---------------------------------|
B|-----------------------------------------|---------------------------------|
G|-----6h7-6------4----2-2-----------------|-----6h7-6------4----------------|
D|-4-4--------2-2---2------2--2--2-2-2-----|-4-4--------2-2---2--4-----------|
A|----------------------------0--0-0-0-----|---------------------2-----------|
E|--------------------------------------x3-|---------------------------------|

Guitar 2  

    F#m7        E7       D7       A7             F#m7        D7       Bm7            
e|--9--9--9--9--7-7-7-7--5-5-5-5--5-5-5-5-----|--9--9--9--9--7-7-7-7--7--7-7-7--|
B|-10-10-10-10--9-9-9-9--7-7-7-7--5-5-5-5-----|-10-10-10-10--9-9-9-9--7--7-7-7--|
G|-11-11-11-11--9-9-9-9--7-7-7-7--6-6-6-6-----|-11-11-11-11--9-9-9-9--7--7-7-7--|
D|-11-11-11-11--9-9-9-9--7-7-7-7--7-7-7-7-----|-11-11-11-11--9-9-9-9--9--9-9-9--|
A|--9--9--9--9--7-7-7-7--5-5-5-5--7-7-7-7-----|--9--9--9--9--7-7-7-7--9--9-9-9--|
E|--------------------------------5-5-5-5--x3-|-----------------------7--7-7-7--|

INTRO x1
VERSE x1
CHORUS x1


INTERLUDE:

Guitar 1
e|-----------------------------------------------------------------------------|
B|-7/9---------------7/9-----------------------------------9-------------------|
G|-----9-7~--7-7-7-------9-7~--7-7-7-------------------------10----------------|
D|------------------------------------------------------11------11-------------|
A|------------------------------------11-11-11-11----11-------------11-11-11---|
E|-------------------------------------9--9--9--9--9-----------------9--9--9---|x2
[ Tab from: http://www.guitartabs.cc/tabs/s/sahara_hotnights/with_or_without_control_tab.html ]
(solo)
e|-2/5-----------------------------------------------------------------------|
B|---------------------------------------------------------------------------|
G|--------------4-------------------------------4----------------------------|
D|------4-4-7-4---7-4--7-4-7/9-7~--4-7--4-4-7-4---7-4--7-4-7/9-7~------------|
A|---------------------------------------------------------------------------|
E|---------------------------------------------------------------------------|

e|-----------------------5---5/7-5~---5---5/8^-8^-8^-8^-8^-8^-8^-7~~---------|
B|-5-5/6-7-7-7-7-7-7-7-7---7--------7---7------------------------------------|
G|---------------------------------------------------------------------------|
D|---------------------------------------------------------------------------|
A|---------------------------------------------------------------------------|
E|---------------------------------------------------------------------------|


Guitar 2
   E5 B5 A5        E5 B5 A5        C#maj7           
e|----------------------------------9--9--9--9--9--9--9--9-----------------|
B|----------------------------------9--9--9--9--9--9--9--9-----------------|
G|-9---------------9---------------10-10-10-10-10-10-10-10-----------------|
D|-9--9--7-7-7-7---9--9--7-7-7-7---11-11-11-11-11-11-11-11-----------------|
A|-7--9--7-7-7-7---7--9--7-7-7-7---11-11-11-11-11-11-11-11-----------------|
E|----7--5-5-5-5------7--5-5-5-5----9--9--9--9--9--9--9--9-----------------|x2

(during solo)
    F#m7        E7       D7       A7             F#m7        D7       Bm7            
e|--9--9--9--9--7-7-7-7--5-5-5-5--5-5-5-5-----|--9--9--9--9--7-7-7-7--7--7-7-7--|
B|-10-10-10-10--9-9-9-9--7-7-7-7--5-5-5-5-----|-10-10-10-10--9-9-9-9--7--7-7-7--|
G|-11-11-11-11--9-9-9-9--7-7-7-7--6-6-6-6-----|-11-11-11-11--9-9-9-9--7--7-7-7--|
D|-11-11-11-11--9-9-9-9--7-7-7-7--7-7-7-7-----|-11-11-11-11--9-9-9-9--9--9-9-9--|
A|--9--9--9--9--7-7-7-7--5-5-5-5--7-7-7-7-----|--9--9--9--9--7-7-7-7--9--9-9-9--|
E|--------------------------------5-5-5-5--x3-|-----------------------7--7-7-7--|


OUTRO:

Guitar 1
e|-----------------------------------------|---------------------------------|
B|-----------------------------------------|---------------------------------|
G|-----6h7-6------4----2-2-----------------|-----6h7-6------4----------------|
D|-4-4--------2-2---2------2--2--2-2-2-----|-4-4--------2-2---2--4-----------|
A|----------------------------0--0-0-0-----|---------------------2-----------|
E|--------------------------------------x3-|---------------------------------|

Guitar 2  

    F#m7        E7       D7       A7             F#m7        D7       Bm7            
e|--9--9--9--9--7-7-7-7--5-5-5-5--5-5-5-5-----|--9--9--9--9--7-7-7-7--7--7-7-7--|
B|-10-10-10-10--9-9-9-9--7-7-7-7--5-5-5-5-----|-10-10-10-10--9-9-9-9--7--7-7-7--|
G|-11-11-11-11--9-9-9-9--7-7-7-7--6-6-6-6-----|-11-11-11-11--9-9-9-9--7--7-7-7--|
D|-11-11-11-11--9-9-9-9--7-7-7-7--7-7-7-7-----|-11-11-11-11--9-9-9-9--9--9-9-9--|
A|--9--9--9--9--7-7-7-7--5-5-5-5--7-7-7-7-----|--9--9--9--9--7-7-7-7--9--9-9-9--|
E|--------------------------------5-5-5-5--x3-|-----------------------7--7-7-7--|


(Keychange - it's just a step higher)

Guitar 1
e|-----------------------------------------|---------------------------------|
B|-----------------------------------------|---------------------------------|
G|-----7h8-7------5----3-3-----------------|-----7h8-7------5----------------|
D|-5-5--------3-3---3------3--3--3-3-3-----|-5-5--------3-3---3--5-----------|
A|----------------------------1--1-1-1-----|---------------------3-----------|
E|--------------------------------------x3-|---------------------------------|

Guitar 2  

   Gm7	        F7	     D#7      A#7            Gm7          F7            Cm7 
e|-10-10-10-10---8--8--8--8--6-6-6-6--6-6-6-6------|-10-10-10-10---8--8--8--8---8---8--8--8--|
B|-11-11-11-11--10-10-10-10--8-8-8-8--6-6-6-6------|-11-11-11-11--10-10-10-10---8---8--8--8--|
G|-12-12-12-12--10-10-10-10--8-8-8-8--7-7-7-7------|-12-12-12-12--10-10-10-10---8---8--8--8--|
D|-12-12-12-12--10-10-10-10--8-8-8-8--8-8-8-8------|-12-12-12-12--10-10-10-10--10--10-10-10--|
A|-10-10-10-10---8--8--8--8--6-6-6-6--8-8-8-8------|-10-10-10-10---8--8--8--8--10--10-10-10--|
E|------------------------------------6-6-6-6--x3--|----------------------------8---8--8--8--|

Repeat till fade out.
Comments