Sahara Hotnights - On Top Of Your World Chords & Tabs

 

On Top Of Your World Chords & Tabs

Sahara Hotnights Chords & Tabs

Version: 1 Type: Tab 0 ratings
1 star 2 stars 3 stars 4 stars 5 stars
comments

On Top Of Your World Tab

On Top of Your World by SAHARA HOTNIGHTS
Album: Jennie Bomb
Tabbed by: bec (benfolds_five@hotmail.com)


INTRO: 

Guitars 1 & 2 
e|-----------|
B|-----------|
G|-99999999--|
D|-99999999--|
A|-77777777--|
E|-----------|

INTRO/VERSES:

Guitar 1
e|-------------------------------------------|
B|----------------10/12^--------10/12^-------|
G|-9x9x9x9x9x9------------9/7-----------9/7--|
D|-------------------------------------------|
A|-------------------------------------------|** Bends are really little
E|-------------------------------------------|

Guitar 2
e|-------------------------------------------|
B|-------------------------------------------|
G|-99999999--77777777------------------------|
D|-99999999--77777777--9999999r-9999999r-----|
A|-77777777--55555555--9999999r-9999999r-----|
E|-----------77777777--7777777r-7777777r-----|

PRE-CHORUS:

Guitar 1
e|-------------------------------------------|
B|-------------------------------------------|
G|-99999999----------------------------------|
D|-xxxxxxxx--(it's just E repeatedly)--------|
A|-77777777----------------------------------|
E|-------------------------------------------|

Guitar 2
e|-------------------------------------------|
B|-------------------------------------------|
G|-55555555------------55555555--77777777----|
D|-55555555--77777777--55555555--77777777----|
A|-33333333--77777777--33333333--55555555----|
E|-----------55555555------------------------|

CHORUS:

Guitar 1
e|-------------------------------------------|-----------------|
B|-------------------------------------------|-----------------|
G|-9---------7---------6---------12---11-----|-9-9-9-9-9-9-9-9-|
D|-x---------x---------x----------x----x-----|-x-x-x-x-x-x-x-x-|
A|-7---------5---------4---------10----9-----|-7-7-7-7-7-7-7-7-|
E|-------------------------------------------|-----------------|
					      ^Bend till the end
[ Tab from: http://www.guitartabs.cc/tabs/s/sahara_hotnights/on_top_of_your_world_tab.html ]
Guitar 2
e|-------------------------------------------|-----------------|
B|-------------------------------------------|-----------------|
G|-99999999--77777777------------------------|-9-9-9-9-9-9-9-9-|
D|-99999999--77777777--77777777--5555-4444---|-x-x-x-x-x-x-x-x-|
A|-77777777--55555555--77777777--5555-4444---|-7-7-7-7-7-7-7-7-|
E|---------------------55555555--3333-2222---|-----------------|
					      ^Bend till the end


VERSE
CHORUS x2

BRIDGE:

Guitars 1 & 2
e|---------------------------------------------------------------------------|
B|---------------------------------------------------------------------------|
G|-555r555r555r555r--------------------555r555r555r555r--77--77--7-7---------|
D|-555r555r555r555r--777r777r777r777r--555r555r555r555r--77--77--7-7---------|
A|-333r333r333r333r--777r777r777r777r--333r333r333r333r--55--55--5-5---------|
E|-------------------555r555r555r555r----------------------------------------|


CHORUS x2

OUTRO:

Guitar 1		
e|-------------------------|---------------------------|-----------------|
B|-55555555-(3x)--55555034-|-55555034-55555034-(4x)----|-----------------|
G|-------------------------|---------------------------|-9-9-9-9-9-9-9-9-|
D|-------------------------|---------------------------|-x-x-x-x-x-x-x-x-|
A|------^Do all 2x---------|---------------------------|-7-7-7-7-7-7-7-7-|
E|-------------------------|---------------------------|-----------------|
							^Bend till the end

Guitar 2
e|-----------------------------------------------------|-----------------|
B|-----------------------------------------------------|-----------------|
G|-99999999--77777777----------------------------------|-9-9-9-9-9-9-9-9-|
D|-99999999--77777777--77777777--5555-4444-------------|-x-x-x-x-x-x-x-x-|
A|-77777777--55555555--77777777--5555-4444-------------|-7-7-7-7-7-7-7-7-|
E|---------------------55555555--3333-2222-------------|-----------------|
					                ^Bend till the end

End on E.

Comments