Sahara Hotnights - No Big Deal Chords & Tabs

 

No Big Deal Chords & Tabs

Sahara Hotnights Chords & Tabs

Version: 1 Type: Bass Tab 0 ratings
1 star 2 stars 3 stars 4 stars 5 stars
comments

No Big Deal Bass Tab

------------------------------
no big deal / sahara hotnights
------------------------------

tabbed by thomas
                         
[ Tab from: http://www.guitartabs.cc/tabs/s/sahara_hotnights/no_big_deal_btab.html ]
verse;                                                 
G||----------------------------------|----------------------------------||
D||----------------------------------|----------------------------------||
A||----------------------------------|--6-6-5-5-3-3-1-1-5-5-3-3-1-1-0-0-||
E||--3-3-5-5-6-6-5-5-3-3-5-5-6-6-5-5-|----------------------------------||


chorus;
G||-----------------------------|----------------------------------||
D||-----------------------------|----------------------------------||
A||--6--6--8-6-5----------------|----------------------------------||
E||--------------5--5-6--6-6-6--|--10--10--10-10-10-3--3-3--1-1-0--||


it's damn easy to play. bridge is the same as verse. so.. go to garage and try it! ;)
Comments