Sahara Hotnights - Alright Alright Chords & Tabs

 

Alright Alright Chords & Tabs

Sahara Hotnights Chords & Tabs

Version: 1 Type: Bass Tab 0 ratings
1 star 2 stars 3 stars 4 stars 5 stars
comments

Alright Alright Bass Tab

Alright Alright (Here's My Fist, Where's The Fight?)
Sahara Hotnights
 
Intro
G|-------------------
D|-------------------
A|-00-00----30-00----
E|------034------034-

Verse/Bridge
G|----------------------------
D|----------------------------
A|-3-3---------0-0---0--0-0-0-
E|------0-0--------5----------
[ Tab from: http://www.guitartabs.cc/tabs/s/sahara_hotnights/alright_alright_btab.html ]
Chorus
G|---------------------------------
D|---------------------------------
A|-------------------------3-3-3-3-
E|-5-5-5-5-0-0-0-0-1-1-1-1---------

Song Order

There's no bass when the intro is first played.

Intro x 2
Verse x 8
Chorus x 4
Intro x 2
Verse x 4
Chorus x 4
Intro x 2
Chorus x 8 -> Just play the A notes part of the chorus here
Verse until end
Comments