Saetia - Venus And Bacchus Chords & Tabs

 

Venus And Bacchus Chords & Tabs

Saetia Chords & Tabs

Version: 1 Type: Tab 0 ratings
1 star 2 stars 3 stars 4 stars 5 stars
comments

Venus And Bacchus Tab

Band Saetia...America... http://www.level-plane.com/saetia/saetia2.html 



e|------------|------------|----------|--7----------| 
B|---8p7---7--|---8p7---7--|---8p7----|-----10-8-7--| 
G|-------9----|-------9----|-------9--|--0----------|X4 
D|------------|------------|----------|-------------| 
A|------------|------------|----------|-------------| 
E|--(0)-------|--(0)-------|--(0)-----|-------------| 

e|-----------8-7---8-7---8-7---8-7---8-7----| 
B|--8--7---------8-----8-----8-----8-----8--| 
G|--------9---------------------------------| X2 
D|------------------------------------------| 
A|------------------------------------------| 
E|--0--0--0---------------------------------| 

e|------------|------------|----------|--7----------| 
B|---8p7---7--|---8p7---7--|---8p7----|-----10-8-7--| 
G|-------9----|-------9----|-------9--|--0----------|X2 
D|------------|------------|----------|-------------| 
A|------------|------------|----------|-------------| 
E|--(0)-------|--(0)-------|--(0)-----|-------------| 

e|--12-12-12-12-12-12-12-12-12-12-12-12-12-12-12-12--| 
B|---------------------------------------------------| 
G|---------------------------------------------------| 
D|---------------------------------------------------| 
A|---------------------------------------------------| 
E|---------------------------------------------------| 
pm.................................................. 

e|--10-10-10-10-10-10-10-10-10-10-10-10-10-10-10-10--| 
B|---------------------------------------------------| 
G|---------------------------------------------------| 
D|---------------------------------------------------| 
A|---------------------------------------------------| 
E|---------------------------------------------------| 
pm................................................... 

e|--12-12-12-12-12-12-12-12-12-12-12-12-12-12-12-12--| 
B|---------------------------------------------------| 
G|---------------------------------------------------| 
D|---------------------------------------------------| 
A|---------------------------------------------------| 
E|---------------------------------------------------| 
pm................................................... 
[ Tab from: http://www.guitartabs.cc/tabs/s/saetia/venus_and_bacchus_tab.html ]
e|--10-10-10-10-10-10-10-10---------------| 
B|----------------------------------------| 
G|----------------------------------------| 
D|---------------------------9--7---------| 
A|---------------------------------10--9--| 
E|----------------------------------------| 
pm........................ (distorted) 

"i fade from myself..." 
e|-----------|-----------|--------|--------------| 
B|-----------|-----------|--------|--------------| 
G|-----------|-----------|--------|--4-----------|X2 
D|--5p4---4--|--5p4---4--|-5p4----|-----7--5--4--| 
A|------7----|-----7-----|-----7--|--------------| 
E|-----------|-----------|--------|--------------| 

e|-----------|-----------|--------|--------------| 
B|-----------|-----------|--------|--------------| Play the top twice 
G|-----------|-----------|--------|--4-----5--4--| then the bottom one 
D|--5p4---4--|--5p4---4--|-5p4----|-----7--------| once. X3 (dont play 
A|------7----|-----7-----|-----7--|--------------| bottom one the last 
E|-----------|-----------|--------|--------------| time) 

"the dance of flesh on flesh..." 
e|--------| 
B|--0--0--| 
G|--0--2--| X4 
D|--5--4--| 
A|--------| 
E|--------| 


"it's better to be stepped on than left all alone" 
e|--------------------------------------| 
B|--------------------------------------| 
G|----------7-----------7--14-14-14-14--| 
D|----------7-----------7--14-14-14-14--| X2 
A|-7h8p7p0--5--7h8p7p0--5--12-12-12-12--| 
E|--------------------------------------| 


e|--------| 
B|--0--0--| 
G|--0--2--| 
D|--5--4--| X4 
A|--------| 
E|--------| 

e|-----------------------------|----------8------------------| 
B|----------8------------------|-----------------------------| 
G|-----------------------------|-----------------------------| X2 
D|--5-5-5-5---4-4-4-4-4-4-4-4--|--5-5-5-5---4-4-4-4-4-4-4-4--| 
A|-----------------------------|-----------------------------| 
E|-----------------------------|-----------------------------| 

"so now I choke on yesterday..." 
e|------------------------------------------| 
B|------------------------------------------| 
G|--------------4--9-9-9-9-9--7--4-4-5-4----| 
D|--5--5-5-5-5-----9-9-9-9-9--7----------5--|X ? 
A|--5--5-5-5-5-----7-7-7-7-7--5-------------| 
E|--3--3-3-3-3------------------------------| 

e|------------------| 
B|------------------| 
G|---------------4--| 
D|--5--5-5-5-5------| ending 
A|--5--5-5-5-5------| 
E|--3--3-3-3-3------|
Comments