Sade - Never As Good A The First Time Chords & Tabs

 

Never As Good A The First Time Chords & Tabs

Sade Chords & Tabs

Version: 1 Type: Bass Tab 0 ratings
1 star 2 stars 3 stars 4 stars 5 stars
comments

Never As Good A The First Time Bass Tab

Song:Never As The First Time

Artist:Sade

Tabber:T4-TURBO

Main:
g:----------------------------|
d:----------------------------|
a:----------------------------|
e:2-0-2-0-2---0---2-0-2-0-----|

Fill:
g:------------------------|
d:------------------------|
a:---------------2--------|
e:0-2-0-2-0---2------7\\\\|
[ Tab from: http://www.guitartabs.cc/tabs/s/sade/never_as_good_a_the_first_time_btab.html ]
Chorus:slap the e string notes and pop the d string notes:
g:--------------------------------------|
d:----5-5------5-5-3-----8-8------8-8--5|
a:--------------------------------------|
e:3--------3---------6--------6---------|

Song Order:
===========
Main:x16
===========
Fill:x1
===========
Chorus:x2
===========
Main:x8
===========
Chorus:x4
===========
Main:x17
===========
Comments