Sade - Flow Chords & Tabs

 

Flow Chords & Tabs

Sade Chords & Tabs

Version: 1 Type: Tab 0 ratings
1 star 2 stars 3 stars 4 stars 5 stars
comments

Flow Tab

   
FLOW by SADE

Chords
-0------1-
-1------3-
-2------2-
-2------0-
-0--------
---------- 
Am    Dm

Strumming Pattern
-----0---------1---
-----1---------3---
-----2--------2----
---2--------0------
-0-----------------
-------------------
[ Tab from: http://www.guitartabs.cc/tabs/s/sade/flow_tab.html ]
Opening Riff
       ^let ring                ^ vibrato 
e---------------------------------
B---------------------------------
G--------------------------7/9--7-
D-----6^7-----------6^7-----------
A---------------------------------
E---------------------------------


Comments