Sabotage - In The Jungle Chords & Tabs

 

In The Jungle Chords & Tabs

Sabotage Chords & Tabs

Version: 1 Type: Bass Tab 0 ratings
1 star 2 stars 3 stars 4 stars 5 stars
comments

In The Jungle Bass Tab

------------3-------5----------
----3-----3---3---5---5--------    this is the basic riff 
--3---3-1-------3--------------
1-----------------------1-1-1-1

[ Tab from: http://www.guitartabs.cc/tabs/s/sabotage/in_the_jungle_btab.html ]
(when lead guitar strums chords)

-------------------------------
----------------3-3-3-3--------
--------1-1-1-1----------------
1-1-1-1-----------------1-1-1-1

then go back to the first riff.

Ben h. bass 4 Sabotage!
Comments