Sabori Nick - Sleep Chords & Tabs

 

Sleep Chords & Tabs

Sabori Nick Chords & Tabs

Version: 1 Type: Tab 0 ratings
1 star 2 stars 3 stars 4 stars 5 stars
comments

Sleep Tab

Sleep
By Nick Sabori
Family Ties

The whole song is written for his little nephew to put him to sleep.

|--3--3--2--2|--0--0--2--2|--3--3--2--2|--0--0--2--2|------------|
|-0--0--0--0-|-1--1--1--1-|-0--0--0--0-|-1--1--1--1-|------------|
|0--0--0--0--|2--2--2--2--|0--0--0--0--|2--2--2--2--|------------|
|------------|------------|------------|------------|------------|
|------------|------------|------------|------------|------------|
|------------|------------|------------|------------|------------|
[ Tab from: http://www.guitartabs.cc/tabs/s/sabori_nick/sleep_tab.html ]
|---3-3-3----|---2-2-2----|---0-0-0----|---2-2-2----|------------|
|---0-0-0----|---0-0-0----|---1-1-1----|---1-1-1----|------------|
|---0-0-0----|---0-0-0----|---2-2-2----|---2-2-2----|------------|
|------------|------------|------------|------------|------------|
|------------|------------|------------|------------|------------|
|------------|------------|------------|------------|------------|

you repeat the first part eight times then you play the second part 
3 times then repeat. that's pretty much the whole song Have fun
Comments