Rzeznik Johnny - Im Still Here Chords & Tabs

 

Im Still Here Chords & Tabs

Rzeznik Johnny Chords & Tabs

Version: 1 Type: Tab 0 ratings
1 star 2 stars 3 stars 4 stars 5 stars
comments

Im Still Here Tab

Artist:John Rzeznik
I'm Still Here (Acoustic)
this song is in Drop D tuning; DADABE

Interpretation of the song by Chad Matthew

Here's what the song's pretty much like, 
you'd have to listen to the song to figure out how the rythm goes.
I just figured it out by ear, and may not be very acurate, if its not
then its pretty close.

[ Tab from: http://www.guitartabs.cc/tabs/r/rzeznik_johnny/im_still_here_tab.html ]
Verse & Chorus
E---0--------------------0--------------------0--------------------0
B---0--------------------0--------------------0--------------------0
A---0--------------------0--------------------0--------------------0
D---7--------------------7--------------------7--------------------2
A---0--------------------X--------------------X--------------------X
D---7--------------------0--------------------4--------------------2


E---0----------------
B---0----------------
A---0----------------
D---2----------------
A---0----------------
D---0----------------


Bridge
E---X----------------X----------------X----------------X
B---X----------------X----------------X----------------X
A---X----------------X----------------X----------------X
D---0----------------2----------------4----------------7
A---0----------------2----------------4----------------7
D---0----------------2----------------4----------------7
Comments