Rzenzik Johnny - I'm Still Here Chords & Tabs

 

I'm Still Here Chords & Tabs

Rzenzik Johnny Chords & Tabs

Version: 1 Type: Tab 1 rating
1 star 2 stars 3 stars 4 stars 5 stars
comments

I'm Still Here Tab

   
John Rzeznik specially tunes his guitars whenever playing his songs. For “im still here”, the guitar is to be tuned as follows:  (remember, the string are numbered 1-6 from e-E, not E-e)

1. lower the sixth string: Tune the sixth string the same as the fourth, only its an octave lower.

2. Skip the 5th and 4th string and bring up the 2nd string: Tune the second string as the 3rd string on it’s 1st fret. Or (B =  G on 1st fret)

3. Now tune the third string the same as the second string
 (so, G = B now)
4. When you strum all the strings, they’re based on an A.
[ Tab from: http://www.guitartabs.cc/tabs/r/rzenzik_johnny/im_still_here_tab.html ]
Intro: (play thru verse)
e---------0-----------0-------|		e---------0-----------0---------|
B-------0-----0-----0-----0---|		B-------0-----0-----0-----0-----|
G-----0-----0-----0-----0-----|2x		G-----0-----0-----0-----0-------|
D---------------0-------------|		D---4-----------2-----------0---|
A---0-------------------------|		A-------------------------------|
E-----------------------------|		E-------------------------------|

Chorus:	      (…cause im not here)
e---0-0-0-0-0-0--0-0-0------|   e------------------|
B---0-0-0-0-0-0--0-0-0------|   B------------------|
G---0-0-0-0-0-0--0-0-0------|2x G---5-4-0--5-4-0---|
D---7-0-7-0-7-0--4-2-0------|   D---0-0-0--0-0-0---|
A---7-0-7-0-7-0--4-2-0------|   A---5-4-0--5-4-0---|
E---7-0-7-0-7-0--4-2-0------|   E------------------|

   (they cant tell…)
e--0-0-0-----|	e------------------|
B--0-0-0-----|	B------------------|
G--0-0-0-----|	G--5-4-0--5-4-0----|  4x
D--0-2-4-----|	D--0-0-0--0-0-0----|
A--0-2-4-----|	A--5-4-0--5-4-0----|
E--0-2-4-----|	E------------------|

Repeat the chorus and ur dun!
Enjoy!
Comments