Ryczek Matt - When I See You Chords & Tabs

 

When I See You Chords & Tabs

Ryczek Matt Chords & Tabs

Version: 1 Type: Tab 0 ratings
1 star 2 stars 3 stars 4 stars 5 stars
comments

When I See You Tab

When I See you
by Matt Ryczek

Capo 3 - Standard Tuning
All chords are relative to the capo

The best way to play this is without the use of a pick.
palm muting is HUGE in this song so I just play it 
without a pick and palm mute on the beats.


Intro/Chorus

E --3-----3--3----3------------
B --3-----3--3----3------------
G --0-----0--0----0------------
D --0-----0--0----0----(x4)----
A --x-----2s-3----3------------
E --3--------------------------

Verse


E ---------------------------------------------------
B ---------------------------------------------------
G ---------0h2--0-----0h2--0-----0h2--4--2--0--0-----
D ---------0----0-----0----0-----0----0--0--0--2-----
A -----------------2----------3----------------------
E --3--3-------------------------------------------3-
[ Tab from: http://www.guitartabs.cc/tabs/r/ryczek_matt/when_i_see_you_tab.html ]
Your grin has no end....              Until then....
                                                   
E --x-----x----x----x------------     --x----x----x-------
B --3-----3----3----3------------     --3----3----3------- 
G --0-----0----0----0------------     --0----0----0-------
D --0-----0----0----0----(x4)----     --0----0----0-------
A --x-----2----3----3------------     --x----2----3-------
E --3----------------------------     --3-----------------

Break

E ---------------------------------------------------
B ---------------------------------------------------
G ---------0h2--0-----0h2-----0--0h2--4--2--0--0-----
D ---------0----0-----0-------0--0----0--0--0--2-----
A -----------------2-------3-------------------------
E --3--3-------------------------------------------3-


Chorus

E --3-----3--3----3------------
B --3-----3--3----3------------
G --0-----0--0----0------------
D --0-----0--0----0----(x4)----
A --x-----2s-3----3------------
E --3--------------------------


Bridge

E --x---x---x-----------
B --1---1---3-----------
G --2---0---0-----------
D --3---2---0---(x6)----
A --x---3---2-----------
E --x---x---3-----------
Comments