Ryczek Matt - Slipping Away Chords & Tabs

 

Slipping Away Chords & Tabs

Ryczek Matt Chords & Tabs

Version: 1 Type: Tab 0 ratings
1 star 2 stars 3 stars 4 stars 5 stars
comments

Slipping Away Tab

Slipping Away
by Matt Ryczek

Standard Tuning

This is the version that I play. It's not the same version as
Matt plays, but it works. I think he uses Capo 7 and plays
standard chords. I have fat fingers so I transposed it to no
capo. So, it's not exactly correct, but again, it works out.

Intro

E --------3-----------3------------3----------3---------------
B -----------3-----------3-----------3-----------3------------
G -----0-----------0------------0----------0------------------
D ----------------------------------------------------(x4)----
A ---------------------------3----------3---------------------
E --3-----------2---------------------------------------------


Verse

E ----3-----3-----3-----3----------
B ----3-----3-----3-----3----------
G ----0-----0-----0-----2----------
D ----0-----0-----x-----0----------
A ----x-----x-----3-----x--(x2)----
E ----3-----2----------------------

Pre Chorus (1)

E ----0-----0-----0-----0-----0----
B ----0-----1-----1-----1-----3----
G ----0-----0-----2-----0-----0----
D ----2-----2-----2-----2-----4----
A ----2-----3-----0-----3-----5----
E ----0----------------------------

Break
[ Tab from: http://www.guitartabs.cc/tabs/r/ryczek_matt/slipping_away_tab.html ]
E ----3-----3-----3-----3----------
B ----3-----3-----3-----3----------
G ----0-----0-----0-----2----------
D ----0-----0-----x-----0----------
A ----x-----x-----3-----x--(x1)----
E ----3-----2----------------------


Verse 2

E ----3-----3-----3-----3----------
B ----3-----3-----3-----3----------
G ----0-----0-----0-----2----------
D ----0-----0-----x-----0----------
A ----x-----x-----3-----x--(x2)----
E ----3-----2----------------------

Pre Chorus (2)

E ----0-----0---------0-----0-----0-----3---
B ----0-----1---------1-----1-----3-----3---
G ----0-----0---------2-----0-----0-----0---
D ----2-----2--(x2)---2-----2-----4-----0---
A ----2-----3---------0-----3-----5-----x---
E ----0---------------------------------3---

Chorus (Palm Mute)
    
E ----3-----3-----3-----          ----3-----3---
B ----3-----3-----3-----          ----3-----3---
G ----0-----0-----2-----          ----0-----2---
D ----0-----0-----0-----  (x3)    ----2-----0---
A ----x-----x-----------          ----3-----x---
E ----3-----2-----------          --------------


From this point on each is repeated throughout the song. 

I will be posting more tabs as I have complete them. I just 
sounded all his songs out, so I don't know if they are exactly
what Matt plays. Keep it up Mattie...can't wait for the CD

-Ed

Comments