Ryczek Matt - I Want To Know Chords & Tabs

 

I Want To Know Chords & Tabs

Ryczek Matt Chords & Tabs

Version: 1 Type: Tab 0 ratings
1 star 2 stars 3 stars 4 stars 5 stars
comments

I Want To Know Tab

I want to Know
by Matt Ryczek

Capo 6
Standard Tuning

All chords/notes are relative to the capo

Intro
E ---------3 (ring)-
B -------1----------
G -----0------------
D ---2--------------
A -3----------------
E ------------------


Verse
E --------0-------------0-------------0-----------0-----
B ------3-------------3-------------3-----------3-------
G ----0-----(x2)----0-----(x2)----0----(x2)---0-----(x2)
D ----------------2-------------------------------------  (x4)
A -3---------------------------0------------2-----------
E ------------------------------------------------------
[ Tab from: http://www.guitartabs.cc/tabs/r/ryczek_matt/i_want_to_know_tab.html ]
Chorus
E --------0-------------0-------------0-----------0-----
B ------3-------------3-------------3-----------3-------
G ----0-----(x2)----0-----(x2)----0----(x2)---0-----(x2)
D ------------------------------------------------------  (x4)
A -3--------------2------------0------------2-----------
E ------------------------------------------------------

Bridge (I am totally unsure about this!)
E ----------------------0-------------3--------3------3----
B -------3------------3-----------------1--------1------1--
G -----0----(x2)----0-----(x2)-----0-----------------------
D ---0------------0--------------2------------------------- 
A -0---------------------------3------------3------3-------
E --------------3------------------------------------------

Play the first part one more time and then end on a Barre G

E ------------3-
B ----------3---
G --------4-----
D ------5-------
A ----5---------
E --3-----------

Then go back to the Chorus

I know the bridge isn't right, but it's in the same key 
so it doesn't sound that bad. A little help Matt??
Comments