Ryan Tedder - Look Chords & Tabs

 

Look Chords & Tabs

Ryan Tedder Chords & Tabs

Version: 2 Type: Tab 0 ratings
1 star 2 stars 3 stars 4 stars 5 stars
comments

Look Tab

Order:

Verse  x 1 (0:01)
Riff 1 x 1 (0:17)
Chorus x 3 (0:23)
Riff 1 x 1 (0:39)
Riff 2 x 1 (0:43)
Verse  x 1 (0:55)
Riff 1 x 1 (1:10)
Chorus x 3 (1:16)
Riff 1 x 1 (1:31)
1st Bridge x 1 (1:37)
Chorus x 3 (2:00)
Riff 1 x 1 (2:15)
Chorus x 3 (2:21)
Riff 1 x 2 (2:38)
Riff 2 (2:51) till fade out


Verse
e----------------------------------------------------------|
b--0--1----3--0----0--1------------0--1--3--0--------------|
g--0--0----0--0----0--0----2--2----0--0--0--0--------------|
d--0--0----0--2----0--0----0--0----0--0--0--2--------------|
a-----0--0-2--2-------0---------------0--2--2--------------|
E--3-------------0-3-----0-2--2--0-3-----------------------|
    ^  ^    ^  ^    ^  ^    ^  ^    ^  ^  ^  ^

Riff 1
e---------------------------------------------------------|
b----0-1-3-1-0--------------------------------------------|
g----0-0-0-0-0-2------------------------------------------|
d----0-0-0-0-0-0------------------------------------------|
a------0-2-0----------------------------------------------|
E--0-3-------3-2------------------------------------------|

Chorus
e--3--3---------------------------------------------------|
b--3--1---------------0-----------------------------------|
g----------(0)-2-(2)--0-----------------------------------|
d--------(0)---0-(0)--0-----------------------------------|
a---------------------------------------------------------|
E--3-----------2-(2)--3-----------------------------------|
    ^  ^            ^  ^
[ Tab from: http://www.guitartabs.cc/tabs/r/ryan_tedder/look_tab_ver_2.html ]
Riff 2
e---------------------------------------------------------|
b------0---0---0----00h1-0------------0------------------|
g------0---0---0----0-------0---0------0------------------|
d------0---0---0----0---------0--------0------------------|
a---------------------------------------------------------|
E--3-----3---2------0--------------0h2--------------------|
                 ^                        ^
----------------------------------------------------------|
---0-0h1-0----------0----0-0h1-0------------0-------------|
---0-------0---0----0----0-------0---0------0-------------|
---0---------0------0----0---------0--------0-------------|
----------------------------------------------------------|
---0--------------2------0--------------0h2---------------|
                      ^
1st Bridge
e---------------------------------------------------2~----|
b---1-1----3-3----1-1------0----1-1----3x-3----1-1-3~----|
g---0-0----0-0----0-0----2-0----0-0----0x-0----0-0--2~----|
d---2-2----0-0----0-0----0-0----2-2----0x-0----0-0--------|
a--3-3--0-2-2--0-1-1---------0-3-3--0-2x-2--0-1-1--------|
E----------------------0-2-3------------------------------|
     ^ ^    ^ ^    ^ ^    ^ ^    ^ ^    ^  ^    ^ ^


Notation:
3x
0x - palm mute
0x
2x

2~
3~ - let ring
2~

(0) - sometimes played

0h1 - hammer on

^ - tap when indicated, you'll know when.

Also, at 2:21, which I consider the 2nd Bridge, you only need to play the chorus.
They're the same thing. E-mail me corrections, please. Have fun.
Comments