Ryan Tedder - Look Chords & Tabs

 

Look Chords & Tabs

Ryan Tedder Chords & Tabs

Version: 1 Type: Tab 0 ratings
1 star 2 stars 3 stars 4 stars 5 stars
comments

Look Tab

The Look by Ryan Tedder

Capo 3rd fret - Listen to the song for timing and slaps.
[ Tab from: http://www.guitartabs.cc/tabs/r/ryan_tedder/look_tab.html ]
 Is it possible. . .             That nothing could...
e------------------------------------------------------------|
b------------------------------------------------------------|
g----1---2-----4----1---------------1---2-----4---4----------|
d----2---2-----4----2---------------2---2-----4---4----------|
a----2---0---0-0----2---------------2---0---0-0---0----------|
E------------------------------------------------------------| 
 I'm holding back nothing. .         So baby don't...
e------------------------------------------------------------|
b------------------------------------------------------------|
g----1---2-----1----2-----------------1---2---4---2---1---4--|
d----2---2-----2----2---------------- 2---2---4---2---2---4--|
a----2---0---0-2----0-----------------2---0---0---0---2---0--|
E------------------------------------------------------------| 
CHORUS: I want to know. . . . . . and I want hear your...
e------------------------------------------------------------|
b----0---0-----0---0---------------------- 0---0-----0---0---|
g----1---2-----4---1-----------------------1---2-----4---1---|
d----2---2-----4---2-----------------------2---2-----4---2---|
a----2---0---0-0---2-------------------0---2---0---0-0---2---|
E------------------------------------------------------------|
. . . of love that defines...          Now I'm holding....
e------------------------------------------------------------|
b----0---0-----0---0-----------------------------------------|
g----1---2-----4---1---------------1---2---4---2---1---4-----|
d----2---2-----4---2---------------2---2---4---2---2---4-----|
a----2---0---0-0---2---------------2---0---0---0---2---0-----|
E------------------------------------------------------------| 
. . . eyes
e-------------------- ---------------------------------------|
b--------------------S---------------------------------------|
g-------1----1---1---L----1---1h2----1-------1---------------|
d-------2----2---2---A----2--------2---2-----2---(x3)--------|
a--------------------P---------------------------------------|
E----0---------0------ -------------------0------------------| 
 Impossible, maybe,              I'm waiting on...
e------------------------------------------------------------|
b------------------------------------------------------------|
g----1---2-----4----1---------------1---2-----4---4----------|
d----2---2-----4----2---------------2---2-----4---4----------|
a----2---0---0-0----2---------------2---0---0-0---0----------|
E------------------------------------------------------------| 
  I'm sitting here. . .          Be able to hold...
e------------------------------------------------------------|
b------------------------------------------------------------|
g----1---2-----1----2---------------1---2---4---2---1---4----|
d----2---2-----2----2---------------2---2---4---2---2---4----|
a----2---0---0-2----0---------------2---0---0---0---2---0- --|
E------------------------------------------------------------| 
 Now time is all that. . .        Just open for me 
e---------------------------------- --------------------------|
b---2---2-------------------------- -2---2--------------------|
g---2---2---1---1---2---2----1---1- -2---2---1---1---2---2---4|                         
d---2---2---2---2---2---2----2---2- -2---2---2---2---2---2---4|
a---0---0---2---2---0---0----2---2- -0---0---2---2---0---0---0|
E---------------------------------- --------------------------| 
I can see the way...          Could it be that. . . 
e-------------------------------------------------------------|
b-----------0---0-----------------------0---0-----------------|
g---1---2---4---1---------------1---2---2---2-----------------|
d---2---2---4---2---------------2---2-------------------------|
a---2---0---0---2---------------2---0---0---0-----------------|
E-------------------------------------------------------------| 
 Never lie to you. . .        Forever and I. . . 
e-------------------------------------------------------------|
b-----------0---0-----------------------0---------------------|
g---1---2---4---1---------------1---2---4---6-----------------|
d---2---2---4---2---------------2---2---4---6-----------------|
a---2---0---0---2---------------2---0---0---0-----------------|
E-------------------------------------------------------------| 
 Now I'm holding back nothing. . . 
e---------------------------------------------|
b---------------------------------------------|
g---1---2---4---2---1---4---------------------|
d---2---2---4---2---2---4---------------------|
a---2---0---0---0---2---0---------------------|
E---------------------------------------------| 
. . . eyes
e-------------------- -----------------------------------------|
b--------------------S-----------------------------------------|
g-------1----1---1---L----1---1h2----1-------1-----------------|
d-------2----2---2---A----2--------2---2-----2---(x3)----------|
a--------------------P-----------------------------------------|
E----0---------0------ -------------------0--------------------| 

The Look

Is it possible, maybe, to have a love so strong
That nothing could ever compare. . .
I'm holding back nothing just for
the look in your eyes
so baby don't be surprised 
CHORUS:
Well I want to know what makes your world go around
and I want to hear your voice for the sound
of love that defines, all I've had in mind...
now I'm holding back nothing for the look in your eyes 
Impossible, maybe, but worth one last try
I'm waiting on your reply...
I'm sitting here patiently just one chance that I might
be able to hold you tight 
CHORUS 
Well I want to know what makes your world go around
and I want to hear your voice for the sound
of love that defines, all I've had in mind...
now I'm holding back nothing for the look in your eyes 
Impossible, maybe, but worth one last try
I'm waiting on your reply...
I'm sitting here patiently just one chance that I might
be able to hold you tight 
Now time is all that we have
so won't you let me inside your perfect world for one night
Just open up for me and girl I swear that I will be
everything you ever thought a man should be 
CHORUS 
Well I want to know what makes your world go around
and I want to hear your voice for the sound
of love that defines, all I've had in mind...
now I'm holding back nothing for the look in your eyes 
Impossible, maybe, but worth one last try
I'm waiting on your reply...
I'm sitting here patiently just one chance that I might
be able to hold you tight 
I can see the way you're looking back at me
Oh, could it be that you see what you want to see
just let your eyes believe it
Never lie to you in my arms you will be
forever and I. . . 
. . ...now I'm holding back nothing,
for the look in your eyes.
Comments