Ryan Long - Im Not Waving Im Drowning Chords & Tabs

 

Im Not Waving Im Drowning Chords & Tabs

Ryan Long Chords & Tabs

Version: 1 Type: Tab 0 ratings
1 star 2 stars 3 stars 4 stars 5 stars
comments

Im Not Waving Im Drowning Tab

e------------------------------------------------
b------------------------------------------------
g------------------------------------------------
d-2--2--2--2/5--5--5--5-7-9--9--7--7--5--5--5-5-5
a-2--2--2--2/5--5--5--5-7-9--9--7--7--5--4--5-4-5
e-0--0--0--0/3--3--3--3-5-7--7--5--5--3--3--3-3-3

e-------------------------\\
b-------------------------|
g-------------------------|
d-9--9--7--7--5--5--5-5-5-|= Repeat 3 times for verse
a-9--9--7--7--5--4--5-4-5-|
e-7--7--5--5--3--3--3-3-3-/


[ Tab from: http://www.guitartabs.cc/tabs/r/ryan_long/im_not_waving_im_drowning_tab.html ]
Comments