Ryan Cabrera - With You Gone Chords & Tabs

 

With You Gone Chords & Tabs

Ryan Cabrera Chords & Tabs

Version: 1 Type: Chords

With You Gone Chords

Song: With You Gone
Artist: Ryan Cabrera
Tuning: 1/2 step down

Intro:

e|--0------0------0------0----|
b|--0------0------5------0----|
G|--9------8------6------6----|
D|--9------9------6------7----|
A|--7------9------4------7----|
E|--x------7------x------5----|

Verse 1:

e|--0-------0--|
b|--5-------0--|
G|--6-------6--|
D|--6-------7--|
A|--4-------7--|
E|--x-------5--|

Pre-Chorus:
[ Tab from: http://www.guitartabs.cc/tabs/r/ryan_cabrera/with_you_gone_crd.html ]
e|--0----0----0---|
b|--5----0----0---|
G|--6----4----2---|
D|--6----4----2---|
A|--4----2----0---|
E|--x----x----x---|

Chorus:

e|--0----0----0----0--|
b|--0----0----5----2--|
G|--1----4----6----2--|
D|--2----4----6----0--|
A|--2----2----4----0--|
E|--0----x----x----x--|

Verse 2:

e|--0----0----0--|
b|--0----0----0--|
G|--9----6----8--|
D|--9----7----9--|
A|--7----7----9--|
E|--x----5----7--|

If y'all have any Q's, im me at Guitars000