Ryan Cabrera - Walking On Water Chords & Tabs

 

Walking On Water Chords & Tabs

Ryan Cabrera Chords & Tabs

Version: 1 Type: Tab

Walking On Water Tab

   
Artist: Ryan Cabrera
Song: Walking On Water
Tuning: Standard

CAPO on 6th fret

INTRO:

e|--3----3----3----2--|
b|--3----3----3----3--|
G|--0----2----0----2--|
D|--0----0----2----0--|
A|--2----0----2----0--|
G|--3----2----0----x--|

VERSE:

G, C

CHORUS:
[ Tab from: http://www.guitartabs.cc/tabs/r/ryan_cabrera/walking_on_water_tab.html ]
e|--3----3----3----0--|
b|--3----3----3----2--|
G|--0----2----0----0--|
D|--0----0----2----4--|
A|--2----0----2----5--|
G|--3----2----0----x--|

BRIDGE:

e|--1----2----3----0----0----0----2--|
b|--2----1----3----0----0----1----1--|
G|--2----2----0----2----0----2----2--|
D|--0----0----0----1----2----2----0--|
A|--0----0----2----0----2----0----0--|
E|--x----x----3----2----0----x----x--|