Ryan Cabrera - Shine On Chords & Tabs

 

Shine On Chords & Tabs

Ryan Cabrera Chords & Tabs

Version: 3 Type: Tab

Shine On Tab

   
please contact me if you hear that a note its wrong

post your commentarias and corrections, and please rate the tab!!!

i figured out n i play it like this

Its a half step down              this song its played really fast!!!    so you got to 
out the timming
 ~vibrato
/ = slide
h hammer on
p pull off

e----------------------------------------------------------------------5--|
b-------------------------------------------------------------7-----------|
g------------------------------7-6----------------------------------------|
d---------------9-7-----------------------------4--2p0--------------------|
a---------------------9-7-5--------7h5-----5-------------5------4---------|
E--12/5-5/7------------------------------3--------------------------------|

e--------------------------------------------------------------------------|
b------------------------------------------------------------2-------3-----|
g-------------------------7-6----------------------------------------------|
d----------9-7-------------------------------4--2p0------------------------|
a----------------9-7-5----------7h5------5-------------0--------1----------|
E---5/7--------------------------------3-----------------------------------|

electric guitar ( cuz i play it too)

this one is whe he says " still i could never seem to keep up with you"

e-----------------------|
b------2-3---10---7-----|
g-----------------------|
d-----------------------|
a-----------------------|
E-----------------------|

"to an other one thousand"
e-------------|
b--7/4—10-----|
g-------------|
d-------------|
a-------------|
E-------------|

"to give up on you"

e--9---10---7--|
b----7-----7---|
g--------------|
d--------------|
a--------------|
E--------------|

PreChorus:
e------------------------------------|
b------------------------------------|
g--------7-7-x--6-6-x---44-----------|
d--9-9-x-8-8-x--7-7-x---55---7-------|
a--9-9-x-8-8-x--7-7-x---55---7-------|
E--7-7-x-6-6-x--5-5-x---33---5-------|

e-------------------------------|
b-------------------------------|
g-------------------------------|
d--9-9-x-8-8----5/7777---5/7777-|
a--9-9-x-8-8----5/7777---5/7777-|
E--7-7-x-6-6----3/5555---3/5555-|


then in the chorus there are 2 guitars the acoustic & the electric one

but you can play it with this chords :

G ,  D , A , Bm

and the chords

  chords (you can play all the power chords without da e, b and g strings)

   G   D    A  Bm
e--3--------5---2--------|
b--3----7---5---3--------|
g--4----7---6---4—or-----|
d--5----7---7---4------9-|
a--5----5---7---2------9-|
E--3----5---5---2------7-|

[ Tab from: http://www.guitartabs.cc/tabs/r/ryan_cabrera/shine_on_tab_ver_3.html ]
Chorus:
G   D  A        Bm
Shine on, You were made too
G   D  A        Bm
Shine on, And you know I love you
G                   D
And even if we can or can't be friends,
A                             Bm
You're gonne be brighter than you've ever been
   G   D   A
So shine on, You were made too

After chorus:

e----------------------------------------------------------------------|
b----------------------------------------------------------------------|
g-------------------------7-6-------------------------------6----------|
d----------9-7------------------------------4--2p0------4------------9-|
a----------------9-7-5----------7h5-----5------------0------------7----|
E---5/7-------------------------------3------------------------6-------|

then you play the verse like this

e------------------------------------------------------------------5--|
b---------------------------------------------------------7-----------|
g--------------------------7-6----------------------------------------|
d---------9-7------------------------------4--2p0---------------------|
a---------------9-7-5----------7h5-----5-------------5------4---------|
E---5/7------------------------------3--------------------------------|

e-------------------------------------------------------------------|
b----------------------------------------------------------2------3-|
g---------------------------7-6-------------------------------------|
d------------9-7----------------------------4--2p0------------------|
a------------------9-7-5---------7------5-------------0------1------|
E---5/7-------------------------------3-----------------------------|

 bridge:

e---------------------------|(each one is played 4 times)
b---3-----------------------|
g---4------3------4---3---6-|
d---4------4------5---4---7-|
a---2------4------5---4---7-|
E----------2------3---2---5-|

Solo:

e----------------------|
b----------------------|
g--4/14~/16/11~/9~/0---|
d----------------------|
a----------------------|
E----------------------|

Chorus:
G   D  A        Bm
Shine on, You were made too
G   D  A        Bm
Shine on, And you know I love you
G                   D
And even if we can or can't be friends,
A                             Bm
You're gonne be brighter than you've ever been
   G   D   A
So shine on, You were made too


Outro:

e--2-2-x--------|
b--3-3-x--------|
g--4-4-x--------|play thru da outro a lot of times.
d--4-4-x--------|
a---------------|
E---------------|