Ryan Cabrera - Shine On Chords & Tabs

 

Shine On Chords & Tabs

Ryan Cabrera Chords & Tabs

Version: 2 Type: Tab 0 ratings
1 star 2 stars 3 stars 4 stars 5 stars
comments

Shine On Tab

   
Ryan Cabrera - Shine OnGreat song of Ryan Cabrera's new album.
I'm pretty sure he plays it tuned down half a step like most of his songs.

I might have a few notes missing, if you catch any please contact me:
Jorge M. Rassler4SC@aol.com


****************************
***  TUNE DOWN 1/2 STEP  ***
****************************

Intro/Verse:
eb|--------------------------------------------------2---5---|
Bb|----------------------------------------------------------|
Gb|-------------------------7-6------------------------------|
Db|----------------------5-----------------4s2---------------|
Ab|---------------9-7--0-----------------5-------------------|
Eb|-12s5s7---7-----------------------3-------------3---5-----|


Pre-Chorus
     (Bm)     (A)     (G)    (A)      (Bm)   (A)<--Strum until chorus
eb|-------------------------------------------5--------------|
Bb|-------------------------------------------5--------------|
Gb|----------6-6-x---4-4-x---6-6--------------6--------------|
Db|--9-9-x---7-7-x---5-5-x---7-7--8---9-9-x---7--------------|
Ab|--9-9-x---7-7-x---5-5-x---7-7--8---7-7-x---7--------------|
Eb|--7-7-x---5-5-x---3-3-x---5-5--6---7-7-x---5--------------|
[ Tab from: http://www.guitartabs.cc/tabs/r/ryan_cabrera/shine_on_tab_ver_2.html ]
Chorus:
G   D  A        Bm
Shine on you were made to 
G   D  A        Bm
shine on and you know I love you
G                   D
and even if we can or cant be friends
A                             Bm
I'll be with you until the very end 
   G   D   A   
so Shine on You were made to

Post Chorus (Same as Verse but different ending)
eb|----------------------------------------------------------|
Bb|----------------------------------------------------------|
Gb|-------------------7-6----------------------6-5-----------|
Db|----------------5-----------------4s2-------------7-9-----|
Ab|---------9-7--0-----------------5-------------------------|
Eb|----7-----------------------3-------------5-----7---------|

VERSE

PRE-CHORUS

CHORUS

Bridge:
eb|---0------2------3------5--|
Bb|---0------2------3------5--|
Gb|---0-(4x)-2-(4x)-4-(4x)-6--|
Db|---2------4------5------7--|
Ab|---2------4------5------7--|
Eb|---0------2------3------5--|

eb|---3--5--5--5--------------|
Bb|---3--7--5--5--------------|
Gb|---4--7--6--6---(2x)-------|
Db|---5--7--7--7--------------|
Ab|---5--5--7--7--------------|
Eb|---3--5--5--5--------------|

Solo: G D A Bm <--2x
eb|---------------------------|
Bb|--4s14--16s11s9------------|
Gb|---------------------------|
Db|---------------------------|
Ab|---------------------------|
Eb|---------------------------|

CHORUS

Outro: Bm (Whole part)
You're gonna be just fine,
ooh you're gonna be alright love
You're gonna be just fine,
ooh you're gonna be alright love.

Comments: Rassler4SC@aol.com
Comments