Ryan Cabrera - Shes Chords & Tabs

 

Shes Chords & Tabs

Ryan Cabrera Chords & Tabs

Version: 3 Type: Tab 0 ratings
1 star 2 stars 3 stars 4 stars 5 stars
comments

Shes Tab

   
Title: She's
Artist: Ryan Cabrera
Album: Take It All Away
Tabbed by: Olivier Chankane

p          =    Pull Off
h          =    Hammer On

Intro

e|-----------------0---------------------------0--------------|
B|--------------------8---------------------------7-----------|
G|-----------0-----------0---------------0-----------0--------|
D|--------9-----9-----------9---------7-----7-----------7-----|
A|-----7---------------------------5--------------------------|
E|------------------------------------------------------------|

e|-----------------0------------------------0--------------|
B|--------------------3------------------------3-----------|
G|-----------0-----------0---------0--------------0--------|
D|--------4-----4-----------4------------------------4-----|
A|-----3------------------------------3--3-----------------|
E|---------------------------------------------------------|

Verses

Play first part of intro then for:


And when she says goodbye, I just die again
e|-----------------0---------------0-----------------|
B|--------------------3---------------3--------3-----|
G|-----------0-----------0---------------0-----------|
D|--------4-----4-----------4---------------4--------|
A|-----3---------------------------------------------|
E|---------------------------------------------------|

Please don't let it win I'm so tired again
e|-----------------0--------------------------0--------------|
B|--------------------3--------------------------3-----------|
G|-----------0-----------0-----------0--------------0--------|
D|--------4-----------------4-----------4--------------4-----|
A|-----3--------3--------------------------3-----------------|
E|-----------------------------------------------------------|

One thing still remains the same
e|-----------|
B|-----------|
G|-----------|
D|-----4-----|
A|-----3-----|
E|-----------|

Chorus

       Em    C     G     D
e|-----0-----0-----3-----2-----|
B|-----0-----1-----3-----3-----|
G|-----0-----0-----0-----2-----|
D|-----2-----2-----0-----------|
A|-----2-----3-----2-----------|
E|-----0-----------3-----------| Repeat 2x

       Em    D/F# C(add9)D   C(add9) D
e|-----0-----0-----0-----2-----------2-----|
B|-----0-----3-----3-----3-----3-----3-----|
G|-----0-----2-----0-----2-----0-----2-----|
D|-----2-----0-----2-----------2-----------|
A|-----2-----0-----3-----------3-----------|
E|-----0-----2-----------------------------|

Fill
e|-----------------0---------------------------0--------------|
B|--------------------8---------------------------7-----------|
G|-----------0-----------0---------------0-----------0--------|
D|--------9-----9-----------9---------7-----7-----------7-----|
A|-----7---------------------------5--------------------------|
E|------------------------------------------------------------|

[ Tab from: http://www.guitartabs.cc/tabs/r/ryan_cabrera/shes_tab_ver_3.html ]
This is tricky and hard to tab. It's the closest to what I play, but
still, it's better just listen to the song and try to do the same sound...
e|-----------------0---------------------------------|
B|-----------------3--3------------------3-----------|
G|-----------0--------0---0--0--0--0--0--0--0--0-----|
D|--------4-----4-----x---4--4--4--4--4--4--4--4-----|
A|-----3------------------x--x--x--x--x-----x--x-----|
E|---------------------------------------------------|

For the second verse, you can do the picking part like the first verse, or
play the chords.The two fit really good. In the song, it's both picking And chords.

Chorus
Em | C | G | D  (2x)
Em |D/F# | C(add9) | D | C(add9) | D

Bridge
C | D | Em | D
C | D | Em | D
C | D

Chorus
Em | C | G | D  (2x)
Em |D/F# | C(add9) | D | C(add9) | D

Ending
e|----------|
B|------8---|
G|-----0----|
D|----9-----|
A|---7------|
E|----------|


Now for those of you who work better with the chords and lyrics at the same time :).

(Picking)
She looks into my eyes and i'm alive again
And when she says goodbye, I just die again
That's when my restlessness begins
Please don't let it win
I'm so tired again
But underneath the haze
One thing still remains the same

(Chorus)
Em       C      G         D
She's the only love I've known
   Em         C    G        D
And now she's gone away
Em        D/F#       C(+9)             D
She's the light that brought me to the edge
     C(+9) D
Will I     ever love again?

(Picking/chords)
She walked into my life and my world was still
She reached into my soul and all my doubts were killed
That's when my loneliness subsided
She gave me the will,
I could fight it
But nothing can erase the one thing that remains the same

(Chorus)
Em       C      G         D
She's the only love I've known
   Em         C   G        D
And now she's gone away
Em        D/F#       C(+9)             D
She's the light that brought me to the edge
     C(+9) D                C
Will I     ever love again?

(Bridge)
        D              Em
So just tell me what I should do
        D             C
I left everything for you
     D             Em
And I can't hardly breathe
      D                       C
'Cause I know I lost you from my world
   D
From my...

(Chorus)
Em       C     G         D
She's the only love I've known
   Em         C   G        D
And now she's gone away
Em        D/F#       C(+9)             D
She's the light that brought me to the edge
     C(+9) D
Will I     ever love...

Em       C      G         D
She's the only love I've known
   Em         C    G        D
And now she's gone away
Em        D/F#       C(+9)             D
She's the light that brought me to the edge
     C(+9) D
Will I     ever love

again?
e|----------| 
B|------8---|
G|-----9----|
D|----9-----|
A|---7------|
E|----------|

e|--------0-|
B|-------0--|
G|------0---|
D|-----2----|
A|----2-----|
E|---0------|
Comments