Ryan Cabrera - On The Way Down Chords & Tabs

 

On The Way Down Chords & Tabs

Ryan Cabrera Chords & Tabs

Version: 3 Type: Tab 0 ratings
1 star 2 stars 3 stars 4 stars 5 stars
comments

On The Way Down Tab

INTRO
E|--1--1--------4--4--------|
B|--1--1--6--6--4--4--8--8--|
G|--1--1--6--6--5--5--8--8--|
D|--3--3--6--6--6--6--8--8--|
A|--3--3--4--4--6--6--6--6--|
E|--1--1--------4--4--------|

CHORUS
E|--------------------------------------|
B|--------------------------------------|
G|--------------------------------------|
D|--3--3--3--6--6--6--6--6--6--6--6--6--|
A|--3--3--3--4--4--4--6--6--6--6--6--6--|
E|--1--1--1--4--4--4--4--4--4--8--8--8--|
[ Tab from: http://www.guitartabs.cc/tabs/r/ryan_cabrera/on_the_way_down_tab_ver_3.html ]
VERSE
E|---------------------------------------------|
B|--4-4-----4-4-----4-4-----------------5-5----|
G|------5-5-----5-5-----5-5---------4-4--------|  
D|--------------------------5-5-5-5------------|
A|---------------------------------------------|
E|---------------------------------------------|

CHORUS
E|--------------------------------------|
B|--------------------------------------|
G|--------------------------------------|
D|--3--3--3--6--6--6--6--6--6--6--6--6--|
A|--3--3--3--4--4--4--6--6--6--6--6--6--|
E|--1--1--1--4--4--4--4--4--4--8--8--8--|

VERSE
E|--------------------------------------|
B|--------------------------------------|
G|--------------------------------------|
D|--3--3--3--6--6--6--6--6--6--6--6--6--|
A|--3--3--3--4--4--4--6--6--6--6--6--6--|
E|--1--1--1--4--4--4--4--4--4--8--8--8--|
Comments